Hinder - Lips Of An Angel Chords & Tabs

 

Lips Of An Angel Chords & Tabs

Hinder Chords & Tabs

Version: 2 Type: Tab

Lips Of An Angel Tab

Hinder: "Lips of an Angel"
 Album: "Extreme Behavior"

Hinder is from my home state of Oklahoma, and Lips of and Angel is my favorite song.
The tab thats already on here for this song a too complicated so for the average Joe
Schmo of guitar playing can figure it out. This is my first tab>MODERN TRAGEDY KICKS
@$$ 

This is the Acoustic version. On the lead your on your own.

INTRO:
d|----x-----0---|------x-x-----0---|------x-x-----0---|------x-x-----0---|
b|----x---------|------x-x---------|------x-x---------|------x-x---------|
A|----0---0---0-|------0-0---0---0-|------0-0---0---0-|------0-0---0---0-|
D|----7---------|----7/9-9---------|----9/5-5---------|----5/0-0---------|
A|----7---------|----7/9-9---------|----9/5-5---------|----5/0-0---------|
D|----7---------|----7/9-9---------|----9/5-5---------|----5/0-0---------|

Verse 1: "Honey why are you calling me so late"
d|----x-----0---|------x-x-----0---|------x-x-----0---|------x-x-----0---|
b|----x---------|------x-x---------|------x-x---------|------x-x---------|
A|----0---0---0-|------0-0---0---0-|------0-0---0---0-|------0-0---0---0-|
D|----7---------|----7/9-9---------|----9/5-5---------|----5/0-0---------|
A|----7---------|----7/9-9---------|----9/5-5---------|----5/0-0---------|
D|----7---------|----7/9-9---------|----9/5-5---------|----5/0-0---------|

         "It's kinda hard to talk right now"
d|----x-----0---|------x-x-----0---|------x-x-----0---|------x-x-----0---|
b|----x---------|------x-x---------|------x-x---------|------x-x---------|
A|----0---0---0-|------0-0---0---0-|------0-0---0---0-|------0-0---0---0-|
D|----7---------|----7/9-9---------|----9/5-5---------|----5/0-0---------|
A|----7---------|----7/9-9---------|----9/5-5---------|----5/0-0---------|
D|----7---------|----7/9-9---------|----9/5-5---------|----5/0-0---------|

         "Honey why are you crying, is everything ok"
d|----x-----0---|------x-x-----0---|------x-x-----0---|------x-x-----0---|
b|----x---------|------x-x---------|------x-x---------|------x-x---------|
A|----0---0---0-|------0-0---0---0-|------0-0---0---0-|------0-0---0---0-|
D|----7---------|----7/9-9---------|----9/5-5---------|----5/0-0---------|
A|----7---------|----7/9-9---------|----9/5-5---------|----5/0-0---------|
D|----7---------|----7/9-9---------|----9/5-5---------|----5/0-0---------|

         "I gotta whisper cause I can't be to loud"
d|----x-----0---|------x-x-----0---|------x-x-----0---|------x-x-----0---|
b|----x---------|------x-x---------|------x-x---------|------x-x---------|
A|----0---0---0-|------0-0---0---0-|------0-0---0---0-|------0-0---0---0-|
D|----7---------|----7/9-9---------|----9/5-5---------|----5/0-0---------|
A|----7---------|----7/9-9---------|----9/5-5---------|----5/0-0---------|
D|----7---------|----7/9-9---------|----9/5-5---------|----5/0-0---------|

         "Well, My girl's in the next room"
d|--------------|--------------|--------------|--------------|
b|--------------|--------------|--------------|--------------|
A|----0----0----|----0----0----|----0----0----|----0----0----|
D|----7----7----|----9----9----|----5----5----|----0----0----|
A|----7----7----|----9----9----|----5----5----|----0----0----|
D|----7----7----|----9----9----|----5----5----|----0----0----|

         "Sometime's I wish she was you"
d|--------------|--------------|--------------|--------------|
b|--------------|--------------|--------------|--------------|
A|----0----0----|----0----0----|----0----0----|----0----0----|
D|----7----7----|----9----9----|----5----5----|----0----0----|
A|----7----7----|----9----9----|----5----5----|----0----0----|
D|----7----7----|----9----9----|----5----5----|----0----0----|

          "I guess we never really moved on"
d|--------------|--------------|--------------|--------------|
b|--------------|--------------|--------------|--------------|
A|----0----0----|----0----0----|----0----0----|----0----0----|
D|----7----7----|----9----9----|----5----5----|----0----0----|
A|----7----7----|----9----9----|----5----5----|----0----0----|
D|----7----7----|----9----9----|----5----5----|----0----0----|

CHORUS: "It's really good to hear your voice sayin my name 
         and it sounds so sweet"
d|--------------|--------------|--------------|--------------|
b|--------------|--------------|--------------|--------------|
A|----0----0----|----0----0----|----0----0----|----0----0----|
D|----0----0----|----7----7----|---10---10----|----5----5----|
A|----0----0----|----7----7----|---10---10----|----5----5----|
D|----0----0----|----7----7----|---10---10----|----5----5----|

        "Comin from the Lips of an Angel, Hearing those words
         it makes me weak"
d|--------------|--------------|--------------|--------------|
b|--------------|--------------|--------------|--------------|
A|----0----0----|----0----0----|----0----0----|----0----0----|
D|----0----0----|----7----7----|---10---10----|----5----5----|
A|----0----0----|----7----7----|---10---10----|----5----5----|
D|----0----0----|----7----7----|---10---10----|----5----5----|
[ Tab from: http://www.guitartabs.cc/tabs/h/hinder/lips_of_an_angel_tab_ver_2.html ]
        "And I never want to say goodbye, But girl you make it
         so hard to be faithful"
d|--------------|--------------|--------------|--------------|
b|--------------|--------------|--------------|--------------|
A|----0----0----|----0----0----|----0----0----|----0----0----|
D|----0----0----|----7----7----|---10---10----|----5----5----|
A|----0----0----|----7----7----|---10---10----|----5----5----|
D|----0----0----|----7----7----|---10---10----|----5----5----|

        "With the Lips of an Angel"


Verse 2: "It's funny that your calling me tonight"
d|--------------|--------------|--------------|--------------|
b|--------------|--------------|--------------|--------------|
A|----0----0----|----0----0----|----0----0----|----0----0----|
D|----7----7----|----9----9----|----5----5----|----0----0----|
A|----7----7----|----9----9----|----5----5----|----0----0----|
D|----7----7----|----9----9----|----5----5----|----0----0----|

         "And yes I dreampt of you too"
d|--------------|--------------|--------------|--------------|
b|--------------|--------------|--------------|--------------|
A|----0----0----|----0----0----|----0----0----|----0----0----|
D|----7----7----|----9----9----|----5----5----|----0----0----|
A|----7----7----|----9----9----|----5----5----|----0----0----|
D|----7----7----|----9----9----|----5----5----|----0----0----|

          "And doe's he know your talking to me"
d|--------------|--------------|--------------|--------------|
b|--------------|--------------|--------------|--------------|
A|----0----0----|----0----0----|----0----0----|----0----0----|
D|----7----7----|----9----9----|----5----5----|----0----0----|
A|----7----7----|----9----9----|----5----5----|----0----0----|
D|----7----7----|----9----9----|----5----5----|----0----0----|

           "Will it start a fight"
d|--------------|--------------|--------------|--------------|
b|--------------|--------------|--------------|--------------|
A|----0----0----|----0----0----|----0----0----|----0----0----|
D|----7----7----|----9----9----|----5----5----|----0----0----|
A|----7----7----|----9----9----|----5----5----|----0----0----|
D|----7----7----|----9----9----|----5----5----|----0----0----|

           "No I don't think she has a clue"
d|--------------|--------------|--------------|--------------|
b|--------------|--------------|--------------|--------------|
A|----0----0----|----0----0----|----0----0----|----0----0----|
D|----7----7----|----9----9----|----5----5----|----0----0----|
A|----7----7----|----9----9----|----5----5----|----0----0----|
D|----7----7----|----9----9----|----5----5----|----0----0----|


         "Well, My girl's in the next room"
d|--------------|--------------|--------------|--------------|
b|--------------|--------------|--------------|--------------|
A|----0----0----|----0----0----|----0----0----|----0----0----|
D|----7----7----|----9----9----|----5----5----|----0----0----|
A|----7----7----|----9----9----|----5----5----|----0----0----|
D|----7----7----|----9----9----|----5----5----|----0----0----|

         "Sometime's I wish she was you"
d|--------------|--------------|--------------|--------------|
b|--------------|--------------|--------------|--------------|
A|----0----0----|----0----0----|----0----0----|----0----0----|
D|----7----7----|----9----9----|----5----5----|----0----0----|
A|----7----7----|----9----9----|----5----5----|----0----0----|
D|----7----7----|----9----9----|----5----5----|----0----0----|

          "I guess we never really moved on"
d|--------------|--------------|--------------|--------------|
b|--------------|--------------|--------------|--------------|
A|----0----0----|----0----0----|----0----0----|----0----0----|
D|----7----7----|----9----9----|----5----5----|----0----0----|
A|----7----7----|----9----9----|----5----5----|----0----0----|
D|----7----7----|----9----9----|----5----5----|----0----0----|

CHORUS: "It's really good to hear your voice sayin my name 
         and it sounds so sweet"
d|--------------|--------------|--------------|--------------|
b|--------------|--------------|--------------|--------------|
A|----0----0----|----0----0----|----0----0----|----0----0----|
D|----0----0----|----7----7----|---10---10----|----5----5----|
A|----0----0----|----7----7----|---10---10----|----5----5----|
D|----0----0----|----7----7----|---10---10----|----5----5----|

        "Comin from the Lips of an Angel, Hearing those words
         it makes me weak"
d|--------------|--------------|--------------|--------------|
b|--------------|--------------|--------------|--------------|
A|----0----0----|----0----0----|----0----0----|----0----0----|
D|----0----0----|----7----7----|---10---10----|----5----5----|
A|----0----0----|----7----7----|---10---10----|----5----5----|
D|----0----0----|----7----7----|---10---10----|----5----5----|

        "And I never want to say goodbye, But girl you make it
         so hard to be faithful"
d|--------------|--------------|--------------|--------------|
b|--------------|--------------|--------------|--------------|
A|----0----0----|----0----0----|----0----0----|----0----0----|
D|----0----0----|----7----7----|---10---10----|----5----5----|
A|----0----0----|----7----7----|---10---10----|----5----5----|
D|----0----0----|----7----7----|---10---10----|----5----5----|

        "With the Lips of an Angel"