Hinder - Get Stoned Chords & Tabs

 

Get Stoned Chords & Tabs

Hinder Chords & Tabs

Version: 2 Type: Tab 0 ratings
1 star 2 stars 3 stars 4 stars 5 stars
comments

Get Stoned Tab

Song:      Get Stoned
Artist:    Hinder
Album:     Extreme Behavior

Drop D Tuning

This is my first tab.  To my knowledge, no one has tabbed this song before I have.

Although I believe this tab is almost perfect note-wise, I did not bother to tab
vibrato, hammer on, and other such flourishes.  You can easily figure these ou
 by listening to the song.  The rhythm is represented somewhat in the note spacing,
but not entirely - listen to the song to learn the rhythm as well.

Although there are four distinct guitar sounds in this song, you can play it with
only two guitars, since only two sounds are ever used at once.  For playing convenience,
I split the parts and noted the time they are played in the song.


Sound 1 (filler): mellow, bell-like (could easily be done by a keyboard with effects)
Sound 2 (lead): somewhat distorted, space-age sound
Sound 3 (rhythm): heavy distortion
Sound 4 (filler): clean





Sound 1
========================================================================================


e---------------------------------------------------|
b--11----11----10----10----12----12----13----15-----|
g-----12----12----12----12----12----12----12----12--|
d---------------------------------------------------|
a---------------------------------------------------| x2
D---------------------------------------------------| (0:00-0:12)


e------------------------------------------------------------------------------|
b--11----11----10----10----12----12----13----15----11----11----10----10--------|
g-----12----12----12----12----12----12----12----12----12----12----12----12-----|
d--------------------------------------------------------------------------12--|
a------------------------------------------------------------------------------| 
D------------------------------------------------------------------------------| (0:46-0:54)


e------------------------------------------------------------------------------|
b--11----11----10----10----12----12----13----15----11----11----10----10--------|
g-----12----12----12----12----12----12----12----12----12----12----12----12-----|
d--------------------------------------------------------------------------12--|
a------------------------------------------------------------------------------| 
D------------------------------------------------------------------------------| (1:44-1:54)


e---------------------------------------------------------------------------|
b--11----11----10----10----12----12----13----15----11----11----10----10-----|
g-----12----12----12----12----12----12----12----12----12----12----12----12--|
d---------------------------------------------------------------------------|
a---------------------------------------------------------------------------|
D---------------------------------------------------------------------------| (2:30-2:39)


e---------------------------------------------------|
b--11----11----10----10----12----12----13----15-----|
g-----12----12----12----12----12----12----12----12--|
d---------------------------------------------------|
a---------------------------------------------------| x2
D---------------------------------------------------| (2:54-3:06)





Sound 2
========================================================================================


e------------------------------------------------------------------------------------------------------|
b----------------------------------10-11-10-----------------------------------------10-11-10-----------|
g--12-10----10-12-10------12-10-------------12-10---12-10----10-12-10------12-10-------------12-10-----|
d--------12----------12---------12------------------------12----------12---------12----------------12--|
a------------------------------------------------------------------------------------------------------|
D------------------------------------------------------------------------------------------------------|
 (0:12-0:26)

e------------------------------------------------------------------------------|
b--11----11----10----10----12----12----13----15----11----11----10----10--------|
g-----12----12----12----12----12----12----12----12----12----12----12----12-----|
d--------------------------------------------------------------------------12--|
a------------------------------------------------------------------------------| 
D------------------------------------------------------------------------------| (0:46-0:54)

[ Tab from: http://www.guitartabs.cc/tabs/h/hinder/get_stoned_tab_ver_2.html ]
e--------------13----------------------13----13-15-----|
b-----11-10-11----11-10-11----11-10-11----11-------11--|
g--12----------------------10--------------------------|
d------------------------------------------------------|
a------------------------------------------------------|
D------------------------------------------------------| (1:18-1:24)


e--(13)------(13)------------|
b-------(11)-----(11)-13-11--|
g----------------------------|
d----------------------------|
a----------------------------| x2
D----------------------------| (1:30-1:37)


e--(13)------(13)-------|
b-------(11)------(11)--|
g-----------------------|
d-----------------------|
a-----------------------|
D-----------------------| (1:41-1:43)


e------------------------------------------------------------------------------|
b--11----11----10----10----12----12----13----15----11----11----10----10--------|
g-----12----12----12----12----12----12----12----12----12----12----12----12-----|
d--------------------------------------------------------------------------12--|
a------------------------------------------------------------------------------| 
D------------------------------------------------------------------------------| (1:44-1:54)


e--------------------------------6----------------------------------
b---------------6---------------------------------------------------
g-------7---7-8---8-7------8---8---8-7---7---7-8---8-7---7-8---8-7--
d-----8---8-----------8-10---8---------8---8-----8-----8-----8------
a--10---------------------------------------------------------------
D-------------------------------------------------------------------


e--15---13---15-13--------------------------------------18-------------------|
b------------------15-15-13------------13-13-14-14-1314----------------------|
g---------------------------15-15---12------------------------15-12-15---12--|
d----------------------------------------------------------------------------|
a----------------------------------------------------------13----------------|
D----------------------------------------------------------------------------| (2:17-2:30)


e------------6---------------6-----------------------------------|
b----------------------------------------------------------------|
g----7---7-8---8-7---7-8---8---8------7---7-8---8-7---7-8---8-7--|
d--8---8-----------8-----8----------8---8-----8-----8-----8------|
a--------------------------------10------------------------------| x3
D----------------------------------------------------------------| (3:08-3:27)


e--15-14-15-14-15-14-15--|
b------------------------|
g------------------------|
d------------------------|
a------------------------|
D------------------------| (3:27-3:38)


Note: () = nearly inaudible notes





Sound 3
========================================================================================


e-----------------------|
b-----------------------|
g-----------------------|
d--x-5-8-3-1-5-8-3-1-5--|
a--x-5-8-3-1-5-8-3-1-5--|
D--x-5-8-3-1-5-8-3-1-5--| (0:12-0:26)


e-------------------------------------------|
b-------------------------------------------|
g--------5-8-----5--------------------------|
d--0-5-3-5-8-5-3-5-1-3-5-7-5-1-3-5-8-1-3-5--|
a--0-5-3-3-6-5-3-3-1-3-5-7-5-1-3-5-8-1-3-5--|
D--0-5-3-----5-3---1-3-5-7-5-1-3-5-8-1-3-5--| (0:54-1:25)


e---------------------------------------------------|
b---------------------------------------------------|
g--------5-8-----5----------------------------------|
d--0-5-3-5-8-5-3-5-1-3-5-7-5-1-3-5-8-1-3-5-8-3-0-5--|
a--0-5-3-3-6-5-3-3-1-3-5-7-5-1-3-5-8-1-3-5-8-3-0-5--|
D--0-5-3-----5-3---1-3-5-7-5-1-3-5-8-1-3-5-8-3-0-5--| (0:54-1:25)


e---------------------------------------------------------------|
b---------------------------------------------------------------|
g------5-8-----5------------------------------------------------|
d--5-3-5-8-5-3-5-1-3-5-7-5-1-3-5-3-0-3-5-3-0-3-5-3-0-3-5-3-0-3--|
a--5-3-3-6-5-3-3-1-3-5-7-5-1-3-5-3-0-3-5-3-0-3-5-3-0-3-5-3-0-3--|
D--5-3-----5-3---1-3-5-7-5-1-3-5-3-0-3-5-3-0-3-5-3-0-3-5-3-0-3--| (2:41-3:30)





Sound 4
========================================================================================


e-------------------|
b-------------------|
g--0-0-5-5-7-7-7-7--|
d--0-0-5-5-7-7-7-7--|
a-------------------| x3
D-------------------| (0:26-0:46)


e-----------------------------------|
b-----------------------------------|
g--0-3-2-3-3-3-2-3---3-2-3---3-2-3--|
d------------------3-------3--------|
a-----------------------------------| x3
D-----------------------------------| (1:24-1:44)


========================================================================================





Have fun, and please rate this tab, as I spent a large amount of time writing it.
Comments