Hinder - Better Than Me Chords & Tabs

 

Better Than Me Chords & Tabs

Hinder Chords & Tabs

Version: 2 Type: Tab

Better Than Me Tab

-------------------------------------------------------------------------------
			     Better Than Me - Hinder
-------------------------------------------------------------------------------
Tabbed by: Ryan
Email: schellking@hotmail.com

Tuning: Drop D

Intro/Verse
e|-----------------------------------------------1---1--3--------------------|
B|-----5---5-----5-----3---3-----3-----1---1-----1---1--3--------------------|
G|-----------------------------------------------3---3--5--------------------|
D|---7---------7-----5---------5-----3---------3-3---3--5---X5---------------|
A|-5-----5---5-----3-----3---3-----1-----1---1---1---1--3--------------------|
E|-----------------------------------------------1---1--3--------------------|
                                                    strum
Chorus
e|-5--1--3--1--5--1--3--1---5--1--5--1--5--1--3------------------------------|
B|-5--1--3--1--5--1--3--1---5--1--5--1--5--1--3------------------------------|
G|-7--3--5--3--7--3--5--3---7--3--7--3--7--3--5------------------------------|
D|-7--3--5--3--7--3--5--3---7--3--7--3--7--3--5------------------------------|
A|-5--1--3--1--5--1--3--1---5--1--5--1--5--1--3------------------------------|
E|-5--1--3--1--5--1--3--1---5--1--5--1--5--1--3------------------------------|
   Listen to the song for the strumming pattern
[ Tab from: http://www.guitartabs.cc/tabs/h/hinder/better_than_me_tab_ver_2.html ]
Break
e|-----------------------------------------------1---1--3--------------------|
B|-----5---5-----5-----3---3-----3-----1---1-----1---1--3--------------------|
G|-----------------------------------------------3---3--5--------------------|
D|---7---------7-----5---------5-----3---------3-3---3--5---X2---------------|
A|-5-----5---5-----3-----3---3-----1-----1---1---1---1--3--------------------|
E|-----------------------------------------------1---1--3--------------------|
                                                       strum
Verse
e|-5--3--1----1--3------5--3--------------1----------------1--3--------------|
B|-5--3--1----1--3------5--3------1---1---1---1---1-----1--3--3--------------|
G|-7--5--3----3--5------7--5--------------3----------------3--5--------------|
D|-7--5--3----3--5--X3--7--5----3---------3-----------3----3--5--------------|
A|-5--3--1----1--3------5--3--1-----1---1-1-1---1---1------1--3--------------|
E|-5--3--1----1--3------5--3--------------1----------------1--3--------------|
  Listen to the song for the strumming pattern

Chorus
e|-5--1--3--1--5--1--3--1---5--1--5--1--5--1--3------------------------------|
B|-5--1--3--1--5--1--3--1---5--1--5--1--5--1--3------------------------------|
G|-7--3--5--3--7--3--5--3---7--3--7--3--7--3--5------------------------------|
D|-7--3--5--3--7--3--5--3---7--3--7--3--7--3--5------------------------------|
A|-5--1--3--1--5--1--3--1---5--1--5--1--5--1--3------------------------------|
E|-5--1--3--1--5--1--3--1---5--1--5--1--5--1--3------------------------------|

Interlude
e|-5--1--x--3----------------------------------------------------------------|
B|-5--1--x--3----------------------------------------------------------------|
G|-7--3--x--5----------------------------------------------------------------|
D|-7--3--3--5--X2-x-x-x-x-x-x-x-x--------------------------------------------|
A|-5--1--3--3-----x-x-x-x-x-x-x-x--------------------------------------------|
E|-5--1--3--3-----x-x-x-x-x-x-x-x--------------------------------------------|
                       p.m
Chorus
e|-5--1--5--1--5--1--3----5--1--5--1-----1--5--1--3-------5--1--3------------|
B|-5--1--5--1--5--1--3----5--1--5--1-----1--5--1--3-------5--1--3------------|
G|-7--3--7--3--7--3--5----7--3--7--3-----3--7--3--5-------7--3--5------------|
D|-7--3--7--3--7--3--5----7--3--7--3--x--3--7--3--5-------7--3--5-X5---------|
A|-5--1--5--1--5--1--3----5--1--5--1--x--1--5--1--3-------5--1--3------------|
E|-5--1--5--1--5--1--3----5--1--5--1--x--1--5--1--3-------5--1--3------------|
                                      p.m