Himsa - Rain To The Sound Of Panic Chords & Tabs

 

Rain To The Sound Of Panic Chords & Tabs

Himsa Chords & Tabs

Version: 1 Type: Bass Tab 0 ratings
1 star 2 stars 3 stars 4 stars 5 stars
comments

Rain To The Sound Of Panic Bass Tab

   
Tunning E A D G

|----------------------------|#1
|----------------------------|X1
|------------21-10-----------|
|--5-6--3-2--------5-3-12-3--|

|--------------------------------------|#2
|--------------------------------------|X1
|----2--2--2---------------------------|
|--3---3--3-3-1--2-3-4-3-323232-23-43--|


|--------------------|#3
|--------------------|X2
|--3-2-3-5-3-2-4p3-2-|
|---0-0-0-0-0-0------|


|--------------------|#4
|-------6-3-1-0------|X1
|-3-2-3--------------|
|--------------------|


|--------------------|#5
|--3-2-3-5-3-2-------|X2
|---0-0-0-0-0-0------|
|--------------------|


|--------------------|#6
|--------------------|X1
|-1-0--3-2-----------|
|--------------------|



|-----------------------|#7
|-----------------------|X2
|--5--4-542-54235-------|
|---00-0---0------3-----|
[ Tab from: http://www.guitartabs.cc/tabs/h/himsa/rain_to_the_sound_of_panic_btab.html ]
|-----------------------|#8
|-----------------------|X2
|-6--4-532-53245--------|
|--00-0---0------3------|

#3
#4

|----------------------------|#9|----------------------------|#10
|--------3---7---3---7-------|X3|--------5---9---5---9-------|X3
|---55--5---5---5---5---3----|  |---77--7---7---7---7---5----|
|-00--00--00--00--00--00-----|  |-00--00--00--00--00--00-----|

#9

|----------------------------|#11
|----------------------------|X6
|----------------------------|
|-0~---0~5~-0~---0~5---------|

|----------------------------|#12
|----------------------------|X1
|------------------4-3-2-1---|
|--3-5-3-5-2-4-3-5-----------|

Under-solo
|----------------------------|#13
|----------------------------|X4
|----------------------------|
|--55555555-11111111---------|

#3
#4
#7(X2 not X3)
#8(X2 not X3)
#3
#4

Finish with:
|-------------------------------------------------|
|-------------------------------------------------|
|---------------------------------4-3-2-1---------|
|--00-00-00-00-00-00-00-00-0-0-0-0-------434354340|

END
Comments