Himsa - Dominion Chords & Tabs

 

Dominion Chords & Tabs

Himsa Chords & Tabs

Version: 2 Type: Tab 0 ratings
1 star 2 stars 3 stars 4 stars 5 stars
comments

Dominion Tab

   
I got tired of seeing too many incorrect tabs so i decided to post one of my own. This 
my first tab but its almost 100% correct. Enjoy!!

Tuning: Drop C (c-g-C-f-a-d)

Intro:
1st guitar
|---------------------------------------------------------------------------|
|---------------------------------------------------------------------------|
|---------------------------------------------------------------------------|
|-0-0-19-0-0-17-0-0-20-0-0-19-0-0-17-0-19-0-0-17-0-0-15-0-17-0-15-0-17-0-19-|
|---------------------------------------------------------------------------|
|---------------------------------------------------------------------------|

|------------------------------------------------------------|
|------------------------------------------------------------|
|------------------------------------------------------------|
|-0-0-19-0-0-17-0-0-20-0-0-19-0-0-17-0-19-0-0-17-0-0-15-0-17-|
|------------------------------------------------------------|
|------------------------------------------------------------|

2nd guitar
|---------------------------------------------------------------------------|
|---------------------------------------------------------------------------|
|---------------------------------------------------------------------------|
|-0-0-15-0-0-14-0-0-17-0-0-15-0-0-14-0-15-0-0-14-0-0-12-0-14-0-12-0-14-0-15-|
|---------------------------------------------------------------------------|
|---------------------------------------------------------------------------|

|------------------------------------------------------------|
|------------------------------------------------------------|
|------------------------------------------------------------|
|-0-0-15-0-0-14-0-0-17-0-0-15-0-0-14-0-15-0-0-14-0-0-12-0-14-|
|------------------------------------------------------------|
|------------------------------------------------------------|

|----------------|
|----------------|
|----------5-7---|
|-3-2-0----5---7-|
|-1-----3--3---0-|
|----------------|

|-----------------------------------------------------------------|
|-----------------------------------------------------------------|
|-----------------------------------------------------------------|
|-------------------------3h5p3p0-------------------------3h5p3p0-|
|-3h5---------3h5-----3h5---------------------3h5-----3h5---------|
|-----0-0-0-0-----0-0-------------3h5-0-0-0-0-----0-0-------------|

|---------------------------------------------------|
|---------------------------------3---------5-----6-|
|---------------------------------3-3-3-3-3-5-5-5-7-|
|-------------------------3h5p3p0-------------------|
|-0h1---------0h1-----3h5---------------------------|
|-----0-0-0-0-----0-0-------------------------------|

Verse:
[ Tab from: http://www.guitartabs.cc/tabs/h/himsa/dominion_tab_ver_2.html ]
|-----------------------------------------------------------------|
|-----------------------------------------------------------------|
|-----------------------------------------------------------------|
|-------------------------3h5p3p0-------------------------3h5p3p0-|
|-3h5---------3h5-----3h5---------------------3h5-----3h5---------|
|-----0-0-0-0-----0-0-------------3h5-0-0-0-0-----0-0-------------|

|-------------------------------------------------------------|
|-------------------------------------------------------------|
|-------------------------------------------------------------|
|-------------------------3h5p3p0---------------------3-----2-|  2x
|-0h1---------0h1-----3h5---------1h3---------3p1-----1-----0-|
|-----0-0-0-0-----0-0-----------------0-0-0-0-----0-0---0-0---|

chorus:
|---------------------------------------------------------------------------|
|-3----5-5-5-5--6-6-6-6--5-5-5-5--------------------------------------------|
|---------------------------------------------------------------------------|
|-3----5-5-5-5--2-2-2-2--2-2-2-2-0-0-0-0--0-0-0-0--0-0-0-0-0-0-0-0--0-0-0-0-|
|-1----3-3-3-3--0-0-0-0--0-0-0-0-0-0-0-0--0-0-0-0--0-0-0-0-0-0-0-0--0-0-0-0-|
|--------------------------------0-0-0-0--0-0-0-0--0-0-0-0-0-0-0-0--0-0-0-0-|

|---------|
|---------|
|---------|
|-0-0-0-0-|  2x
|-0-0-0-0-|
|-0-0-0-0-|

repeat verse
then intro
then this: (figure out the solo for yourself)
|------------------------------------------|
|------------------------------------------|
|------------------------------------------|
|-0-0---0--0--0-0---5-----0-0---0--0--3--2-|  2x
|-0-0---0--0--0-0---3-----0-0---0--0--1--0-|
|-0-0---0--0--0-0---------0-0---0--0-------|

|----------------------------------------------|
|----------------------------------------------|
|----------------------------------------------|
|-5-5---5--5--5-5---8-----5-5---5--5--8-8--7-7-|
|-5-5---5--5--5-5---8-----5-5---5--5--8-8--7-7-|
|-5-5---5--5--5-5---8-----5-5---5--5--8-8--7-7-|

|------------------------------------------|
|------------------------------------------|
|------------------------------------------|
|-0-0---0--0--0-0---5-----0-0---0--0--3--2-|
|-0-0---0--0--0-0---3-----0-0---0--0--1--0-|
|-0-0---0--0--0-0---------0-0---0--0-------|

|----------------------------------------------------------------|
|----------------------------------------------------------------|
|----------------------------------------------------------------|
|----------------------------------------------------------------|
|3h5-5-5-5-5-5-5-3h5-5-5-5-5-5-5-1-1-1-1-1-1-1-1-3-3-3-3-0-0-0-0-|
|----------------------------------------------------------------|

repeat chorus
then verse
then end with this:
|-----------------------------------------------------------------------|
|-----------------------------------------------------------------------|
|-----------------------------------------------------3-3-3-3--3-3-3-3--|
|-0-0-0-0--0-0-0-0--0-0-0-0-0-0-0-0--0-0-0-0--0-0-0-0-3-3-3-3--3-3-3-3--|
|-0-0-0-0--0-0-0-0--0-0-0-0-0-0-0-0--0-0-0-0--0-0-0-0-1-1-1-1--1-1-1-1--|
|-0-0-0-0--0-0-0-0--0-0-0-0-0-0-0-0--0-0-0-0--0-0-0-0-------------------|

|------------------------------------|
|------------------------------------|
|-3-3-3-3-5-5-5-5--5-5-5-5--5-5-5-5--|
|-3-3-3-3-5-5-5-5--5-5-5-5--5-5-5-5--|  2x
|-1-1-1-1-3-3-3-3--3-3-3-3--3-3-3-3--|
|------------------------------------|

|----------|
|----------|
|-7-7-7-7\-|
|-7-7-7-7\-|
|-5-5-5-5\-|
|----------|
Comments