Him - Your Sweet Chords & Tabs

 

Your Sweet Chords & Tabs

Him Chords & Tabs

Version: 1 Type: Tab 0 ratings
1 star 2 stars 3 stars 4 stars 5 stars
comments

Your Sweet Tab

   
Song: Your Sweet 666
Band: Him
From: Ross Davidson       supercharger_uk@hotmail.com

I got a CD free with a magizine and this song was on it. I thought it was pretty kool so here is the tab , enjoy!


Standard Tuning : e,b,g,d,a,e

Intro

e |-----------------------------------------------------------------------                  
b |-----------------------------------------------------------------------
g |-----------------------------------------------------------------------
d |------------------9-9-9-9--7-7-7-7--5-5-5-5-5-5-5-5------------       Note:   Not the correct amount of strums but it's 
a |-----5--4--------9-9-9-9--7-7-7-7--5-5-5-5-5-5-5-5------------                    easy to work out
E |------------5--7-7-7-7-7-5-5-5-5--3-3-3-3-3-3-3-3-------------


Verse is just the bass playing but there is a little guitar and it is just

e |-----------------------------------------------------------------------                  
b |-----------------------------------------------------------------------
g |-----------------------------------------------------------------------
d |----------------------------------------------------------------------
a |-----5--4------------------------------------------------------------
E |------------5--3-----------------------------------------------------

[ Tab from: http://www.guitartabs.cc/tabs/h/him/your_sweet_tab.html ]
Chorus
e|--------------------------------------------------------------------|
h|--------------------------------------------------------------------|
g|-4---------------4--------------------------------------------------|
D|-4-----4---5---4-4-----4---5---4-------4---5-5-4-------4---5-5-4----|
A|-2---2---2-------2---2---2-------5---5---5-------0---0---0----------|
E|--------------------------------------------------------------------|
PM   |-| |-|         |-| |-|         |-|          |-|


e|--------------------------------------------------------------------|
h|--------------------------------------------------------------------|
g|--------------------------------------------------------------------|
D|-------4---5-5-4--------4---5-5-4--------4--5-5-4---------4---------|
A|----------------------------------------------------0---0---0-5-4-0-|
E|-3---3---3-------3---3----3--------3---3---3------------------------|
PM   |-||-|      |-||-|      |-||-|            |-----|

After the vocal part play this

e|--------------------------------------------------------------------|
h|--------------------------------------------------------------------|
g|-6---------------6--------------------------------------------------|
D|-6-----6---7---6-6-----6---7---6-------6---7-7-6-------6---7-7-6----|
A|-4---4---4-------4---4---4-------7---7---7--------------------------|
E|-------------------------------------------------7---7---7----------|
PM   |-| |-|         |-| |-|         |-|          |-|


e|---------------------------------|
h|---------------------------------|
g|---------------------------9-8---|
D|-------6---7-7-6-------6---9-8-9-|
A|---------------------------7-6-9-|
E|-5---5---5-------7---7---7-----7-|
PM   |-||-|           |-||-------|


e|---------------------------------|
h|---------------------------------|
g|---------------------------------|
D|-------6---7-7-6-------6---7-7-6-|
A|---------------------------------|
E|-5---5---5-------7---7---7-------|
PM   |-||-|           |-||-------|

e|---------------------------------|
h|---------------------------------|
g|---------------------------9-8---|
D|-------6---7-7-6-------6---9-8-9-|
A|---------------------------7-6-9-|
E|-5---5---5-------7---7---7-----7-|


Enjoy and if you have any questions or want to talk to me on msn my email is supercharger_uk@hotmail.com
Comments