Him - Your Sweet 666 Chords & Tabs

 

Your Sweet 666 Chords & Tabs

Him Chords & Tabs

Version: 1 Type: Bass Tab 0 ratings
1 star 2 stars 3 stars 4 stars 5 stars
comments

Your Sweet 666 Bass Tab

Your Sweet 666 - HIM

Intro:
G:---------------|
D:---------------|
A:-(R--R)--5-4---|
E:-------------5-|
B:---------------|

Riff 1: (x3)
G:----------------|--------------|
D:----------------|--------------|
A:----------------|--------------|
E:--------------3-|-*-3-3-2--2-2-|
B:-0--0-0-0-0-0---|--------------|

Fill:
G:----------------|-----------------|
D:----------------|-----------------|
A:----------------|-2-2-2-2-2-2-0-R-|
E:----------------|-----------------|
B:-0--0-0-0-0-0-0-|-----------------|

Riff 2:
G:-----------------|-----------------|-----------------|-----------------|-----------------|
D:-----------------|-----------------|-----------------|-----------------|-----------------|
A:-----------------|-5-5-5-5-5-5-5-5-|-----------------|-----------------|-----------------|
E:-3-3-3-3-3-3-3-3-|-----------------|-----------------|-----------------|-3-3-3-3-3-3-3-3-|
B:-----------------|-----------------|-2-2-2-2-2-2-2-2-|-2-2-2-2-2-2-2-2-|-----------------|

G:-----------------|-----------------|-----------------|-----------------|-----------------|
D:-----------------|-----------------|-----------------|-----------------|-----------------|
A:-5-5-5-5-5-5-5-5-|-----------------|-----------5-4---|-----------------|-5-5-5-5-5-5-5-5-|
E:-----------------|-----------------|---------------5-|-3-3-3-3-3-3-3-3-|-----------------|
B:-----------------|-2-2-2-2-2-2-2-2-|-2-2-2-2-2-------|-----------------|-----------------|

G:-----------------|-----------------|-----------------|-----------------|----------|-----------|
D:-----------------|-----------------|-----------------|-----------------|----------|-----------|
A:-----------------|-----------------|-----------------|-5-5-5-5-5-5-5-5-|----------|-----------|
E:-----------------|-----------------|-3-3-3-3-3-3-3-3-|-----------------|----------|-----------|
B:-2-2-2-2-2-2-2-2-|-2-2-2-2-2-2-2-2-|-----------------|-----------------|-2*******-|-2***-2***-|
[ Tab from: http://www.guitartabs.cc/tabs/h/him/your_sweet_666_btab.html ]
Riff 3: (x2)
G:-----------------|-----------------|-----------------|-----------------|---------------|
D:-----------------|-----------------|-----------------|-----------------|---------------|
A:-----------------|-----------------|-----------------|-----------------|---------------|
E:-----------------|-----------------|-----------------|-5-5-5-5-5-5-5-5-|-3--3-3-3-3--3-|
B:-0-0-0-0-0-0-0-0-|-0-0-0-0-0-0-0-0-|-3-3-3-3-3-3-3-3-|-----------------|---------------|

G:---------------|---------------|----------------|
D:---------------|---------------|----------------|
A:---------------|---------------|----------5-4---|
E:-3--3-3-3-3--3-|-3--3-3-3-3--5-|-5--5-5-5-----5-|
B:---------------|---------------|----------------|

Riff 1 (x3)
Fill
Riff 2
Riff 3 (x2)
Riff 1 (x4)

Fill 2:
G:------------|
D:------------|
A:------------|
E:------------|
B:-0--R--R--R-|

Pause for 13 measures

Fill 3:
G:----------|-----------|
D:----------|-----------|
A:----------|-----------|
E:----------|-----------|
B:-2*******-|-2***-2***-|

Riff 4: (x3)
G:-----------------|-----------------|-----------------|-----------------|---------------|
D:-----------------|-----------------|-----------------|-----------------|---------------|
A:-----------------|-----------------|-----------------|-----------------|---------------|
E:-----------------|-----------------|-----------------|-7-7-7-7-7-7-7-7-|-5--5-5-5-5--7-|
B:-2-2-2-2-2-2-2-2-|-2-2-2-2-2-2-2-2-|-5-5-5-5-5-5-5-5-|-----------------|---------------|

G:----------------|
D:----------------|
A:----------7-6---|
E:-7--7-7-7-----7-|
B:----------------|

End:
G:-----------------|-----------------|-----------------|-----------------|---------------|
D:-----------------|-----------------|-----------------|-----------------|---------------|
A:-----------------|-----------------|-----------------|-----------------|---------------|
E:-----------------|-----------------|-----------------|-7-7-7-7-7-7-7-7-|-5--5-5-5-5--7-|
B:-2-2-2-2-2-2-2-2-|-2-2-2-2-2-2-2-2-|-5-5-5-5-5-5-5-5-|-----------------|---------------|

G:---------------|---------------|---------------|---------------|---------------|---------------|
D:---------------|---------------|---------------|---------------|---------------|---------------|
A:---------------|---------------|---------------|---------------|---------------|---------------|
E:-7--7-7-7-7--7-|-5--5-5-5-5--7-|-7--7-7-7-7--7-|-5--5-5-5-5--7-|-7--7-7-7-7--7-|-5--5-5-5-5--7-|
B:---------------|---------------|---------------|---------------|---------------|---------------|

G:----------------|------------|
D:----------------|------------|
A:----------7-6---|------------|
E:-7--7-7-7-----7-|-\--\--\--\-|
B:----------------|------------|

Break till end
Comments