Him - Wings Of Butterfly Chords & Tabs

 

Wings Of Butterfly Chords & Tabs

Him Chords & Tabs

Version: 1 Type: Bass Tab 0 ratings
1 star 2 stars 3 stars 4 stars 5 stars
comments

Wings Of Butterfly Bass Tab

   
Band:	HIM
Song:	Wings Of Butterfly
Tuning:	Standard Mige Tuning BEAD.
Tab by Philip Hannaart (Don't copy my tab without mentioning my name;))

Note: This is perhaps the Radio Edit version. The album version hasn't been released
yet when writing this tab.
Thanks for using my tab. Cheers!

Intro Bass comes in at 0.06

D--------------------|
A--------------------|
E-4-4-6--------4-4-6-|
B--------------------|

D-------------------------------------|
A-------------------------------------|
E-666666--44444444444444---------4444-|
B------4h6--------------7-6-4-444-----|

D------------------------------------|
A------------------------------------|
E-666666--44444444444444-------------|
B------4h6--------------7-6-4--------|

Vers
D------------------------------------|
A---------------------------------3--|
E-4h6--6---------6p4--4---4-6-4-6--6-|
B------------------------------------|

D------------------------------------------------------|
A------------------------------------3-----------------|
E4-4h6--6---4--4----6p4--4---4-6-4-6--6-4--------4-4-6-|
B-----------------------------------------4------------|

Chorus
D-------------------------------------|
A-------------------------------------|
E-666666--44444444444444---------4444-|
B------4h6--------------7-6-4-444-----|
Repeat 1 time

D------------------------------------|
A------------------------------------|
E-666666--44444444444444-------------|
B------4h6--------------7-6-4--------|
[ Tab from: http://www.guitartabs.cc/tabs/h/him/wings_of_butterfly_btab.html ]
Vers
D------------------------------------|
A---------------------------------3--|
E-4h6--6---4--4--6p4--4---4-6-4-6--6-|
B------------------------------------|

D------------------------------------------------------|
A------------------------------------3-----------------|
E4-4h6--6----4-4-4--6p4--4---4-6-4-6--6-4--------4-4-6-|
B-----------------------------------------4------------|

Chorus
D-------------------------------------|
A-------------------------------------|
E-666666--44444444444444---------4444-|
B------4h6--------------7-6-4-444-----|
Repeat 2 times

D------------------------------------------|
A------------------------------------------|
E-666666--44444444444444---------4444-6----|
B------4h6--------------7-6-4-444----------|

Bridge
D-------------------------------------------------|
A-------------------------------------------------|
E-----4-3------------4---------4-3------------4-6-|
B-6------6-4-----6----4----6------6-4-----6-------|

D-----------------------------------------------------------|
A-----------------------------------------------------------|
E-----4-3-----------4---------4-3-------------4-6-----------|
B-6------6-4-424-6----4----6------6-4-424-6-----------------|

2.35
D-------|
A-------|
E-4-4-6-|
B-------|

Chorus
D-------------------------------------|
A-------------------------------------|
E-666666--44444444444444---------4444-|
B------4h6--------------7-6-4-444-----|
Repeat 4 times

D------------------------------------------|
A------------------------------------------|
E-666666--44444444444444-----------4-4-6---|
B------4h6--------------7-6-4-444----------|
Comments