Him - Wings Of A Butterfly Chords & Tabs

 

Wings Of A Butterfly Chords & Tabs

Him Chords & Tabs

Version: 1 Type: Tab 10 ratings
1 star 2 stars 3 stars 4 stars 5 stars
comments

Wings Of A Butterfly Tab

E-mail me with questions or comments at banditboy_9@mugglenet.com
Intro: Guitar 1
e|-----------------------------------------------------------------------------|
B|---6----6---6-6h7p6\4----4---4---4----4h6p4\2----2---2--1--------------------|
G|-----------------------------------------------------------------------------|
D|-----8----8------------6----6---6--6------------4---4------------------------|(4X)
A|-----------------------------------------------------------------------------|
E|-----------------------------------------------------------------------------|

Intro: Guitar 2
(guitar 2 comes in after guitar 1 plays intro once)
|-------------------------|
|-------------------------|
|-------------------------|
|--5-5--7~-------5-5--7~--|
|--5-5--7~-------5-5--7~--|
|--5-5--7~-------5-5--7~--|

|------------------------------------------------------------|
|------------------------------------------------------------|
|------------------------------------------------------------|
|--9-9-9-9---0-0---7-7-7-7--7-7-7-7---7-6-5---5-5-5-5---7-7--|
|--9-9-9-9---0-0---7-7-7-7--7-7-7-7---7-6-5---5-5-5-5---7-7--|
|--9-9-9-9---0-0---7-7-7-7--7-7-7-7---7-6-5---5-5-5-5---7-7--|
p.m...........................................................

|-------------------------------------------------|
|-------------------------------------------------|
|-------------------------------------------------|
|--9-9-9-9---0-0---7-7-7-7--7-7-7-7---7-6-5---5~--|
|--9-9-9-9---0-0---7-7-7-7--7-7-7-7---7-6-5---5~--|
|--9-9-9-9---0-0---7-7-7-7--7-7-7-7---7-6-5---5~--|

Verse 1
|----------------------------------|
|----------------------------------|
|----------------------------------|
|--3-5-5---5-3-3---3-5-3-5-7-5-3---|
|--3-5-5---5-3-3---3-5-3-5-7-5-3---|
|--3-5-5---5-3-3---3-5-3-5-7-5-3---|


|------------------------------------------|
|------------------------------------------|
|------------------------------------------|
|--3-5-5---3-3---5-3-3--3-5-3-5-7-5-3--2~--|
|--3-5-5---3-3---5-3-3--3-5-3-5-7-5-3--2~--|
|--3-5-5---3-3---5-3-3--3-5-3-5-7-5-3--2~--|

Chorus
|------------------------------------------------------------|
|------------------------------------------------------------|
|------------------------------------------------------------|
|--9-9-9-9---0-0---7-7-7-7--7-7-7-7---7-6-5---5-5-5-5---7-7--|
|--9-9-9-9---0-0---7-7-7-7--7-7-7-7---7-6-5---5-5-5-5---7-7--|
|--9-9-9-9---0-0---7-7-7-7--7-7-7-7---7-6-5---5-5-5-5---7-7--|

|-------------------------------------------------|
|-------------------------------------------------|
|-------------------------------------------------|
|--9-9-9-9---0-0---7-7-7-7--7-7-7-7---7-6-5---5~--|
|--9-9-9-9---0-0---7-7-7-7--7-7-7-7---7-6-5---5~--|
|--9-9-9-9---0-0---7-7-7-7--7-7-7-7---7-6-5---5~--|
[ Tab from: http://www.guitartabs.cc/tabs/h/him/wings_of_a_butterfly_tab.html ]
|-----------------------------------------------------------------------------|
|---6----6---6-6h7p6\4----4---4---4----4h6p4\2----2---2--1--------------------|
|-----------------------------------------------------------------------------|
|-----8----8------------6----6---6--6------------4---4------------------------|
|-----------------------------------------------------------------------------|
|-----------------------------------------------------------------------------|

Verse 2
|----------------------------------|
|----------------------------------|
|----------------------------------|
|--3-5-5---5-3-3---3-5-3-5-7-5-3---|
|--3-5-5---5-3-3---3-5-3-5-7-5-3---|
|--3-5-5---5-3-3---3-5-3-5-7-5-3---|


|------------------------------------------|
|------------------------------------------|
|------------------------------------------|
|--3-5-5---3-3---5-3-3--3-5-3-5-7-5-3--2~--|
|--3-5-5---3-3---5-3-3--3-5-3-5-7-5-3--2~--|
|--3-5-5---3-3---5-3-3--3-5-3-5-7-5-3--2~--|

|-----------------------------------------------------------------------------|
|---6----6---6-6h7p6\4----4---4---4----4h6p4\2----2---2--1--------------------|
|-----------------------------------------------------------------------------|
|-----8----8------------6----6---6--6------------4---4------------------------|
|-----------------------------------------------------------------------------|
|-----------------------------------------------------------------------------|

Bridge
|--------------------------------------------------|
|--------------------------------------------------|
|--------------------------------------------------|
|--------------------------------------------------|
|--------------------------------------------------|
|--4~--7-6-4-2---4~--7-2~--4~--7-6-4-2---4~--7-2~--|

|---------------------------------|
|---------------------------------|
|---------------------------------|
|--4~--7-6-4-2-0-2---4~--7-2~-----|2X
|--4~--7-6-4-2-0-2---4~--7-2~-----|
|--4~--7-6-4-2-0-2---4~--7-2~-----|

|-----------------------------------------------------------------------------|
|---6----6---6-6h7p6\4----4---4---4----4h6p4\2----2---2--1--------------------|
|-----------------------------------------------------------------------------|
|-----8----8------------6----6---6--6------------4---4------------------------|
|-----------------------------------------------------------------------------|
|-----------------------------------------------------------------------------|

Chorus
|------------------------------------------------------------|
|------------------------------------------------------------|
|------------------------------------------------------------|
|--9-9-9-9---0-0---7-7-7-7--7-7-7-7---7-6-5---5-5-5-5---7-7--|
|--9-9-9-9---0-0---7-7-7-7--7-7-7-7---7-6-5---5-5-5-5---7-7--|
|--9-9-9-9---0-0---7-7-7-7--7-7-7-7---7-6-5---5-5-5-5---7-7--|

|-------------------------------------------------|
|-------------------------------------------------|
|-------------------------------------------------|
|--9-9-9-9---0-0---7-7-7-7--7-7-7-7---7-6-5---5~--|
|--9-9-9-9---0-0---7-7-7-7--7-7-7-7---7-6-5---5~--|
|--9-9-9-9---0-0---7-7-7-7--7-7-7-7---7-6-5---5~--|

|-----------------------------------------------------------------------------|
|---6----6---6-6h7p6\4----4---4---4----4h6p4\2----2---2--1--------------------|
|-----------------------------------------------------------------------------|
|-----8----8------------6----6---6--6------------4---4------------------------|
|-----------------------------------------------------------------------------|
|-----------------------------------------------------------------------------|

There You Have It The Full 100% Correct Version! Enjoy!
Comments