Him - Wicked Game Live Chords & Tabs

 

Wicked Game Live Chords & Tabs

Him Chords & Tabs

Version: 1 Type: Bass Tab

Wicked Game Live Bass Tab

   
-----------------------------------------------------------------------------
			     wicked game - HIM
-----------------------------------------------------------------------------

Tabbed By :Aggelos Pergatis [root]  

Tuning:E-A-D-G
INTRO
G|--------------------------------------------------------------------------|
D|--------------------------------------------------------------------------|
A|2-2-2-2-2-2-2-4-0-0-0-0-0-0-2-2-------------------------------------------|
E|--------------------------------0---0---3-0-------------------------------|

COUPLE 1st 2x
G|--------------------------------------------------------------------------|
D|--------------------------------------------------------------------------|
A|2-2-2-2-2-2-2-2-0-0-0-0-0-0-0-0-------------------------------------------|
E|--------------------------------0-0-0-0-0-0-0-0-0-0-0-0-0slide12-12-------|
[ Tab from: http://www.guitartabs.cc/tabs/h/him/wicked_game_live_btab.html ]
COUPLE 2nd 2x
G|--------------------------------------------------------------------------|
D|--------------------------------------------------------------------------|
A|2-2-2-2-2-2-2-4-0-0-0-0-0-0-0-0slide7-7-7-7-7-7-7-7-7-7-7-7-7-7-7slide12--|
E|--------------------------------------------------------------------------|

REFREN 
G|--------------------------------------------------------------------------|
D|--------------------------------------------------------------------------|
A|2-2----0-0-2---------------2-2-2-4-0-0--0slide7---------------------------|
E|-------------0-0--0slide12------------------------------------------------|

BRIDGE
G|--------------------------------------------------------------------------|
D|-------------+7[HARMONI]--------------------------------------------------|
A|2----0-SLIDE--------------------------------------------------------------|
E|--------------------------------------------------------------------------|

This is it but you have to listen it first,I am sure its right......
| /  slide up
| \  slide down
| h  hammer-on
| p  pull-off
| ~  vibrato
| +  harmonic
| x  Mute note
=============================================================================