Him - When Love And Death Embrace Chords & Tabs

 

When Love And Death Embrace Chords & Tabs

Him Chords & Tabs

Version: 2 Type: Tab 0 ratings
1 star 2 stars 3 stars 4 stars 5 stars
comments

When Love And Death Embrace Tab

   
HIM - When Love And Death Embrace
Album - Greatest Love Songs Vol. 666
Tabbed by Tim
Standard Tuning
Composed by Ville Valo.

Most of the other TAB was in chords, and didn't include the picking in one of the last
choruses. So here's the Tab-ified version. Well done to whoever did the previous version
though, I stole the solo from him.

Intro

e|---------------------------------------|
B|---------------------------------------|
G|-------------------44444444-5555-7777--|
D|-55555555-22222222-44444444-5555-7777--| Play this twice.
A|-55555555-22222222-22222222-3333-5555--|
E|-33333333-00000000---------------------|

Verse

e|-------------------|
B|-------------------|
G|-------------------|
D|-------------------| Play this 7 times. 
A|-55555555-22222222-|
E|-33333333-00000000-|

Bridge to chorus

e|--------------|
B|--------------|
G|-4--4--44--5--| Then you do a pick slide, then go to the intro which 
D|-4--4--44--5--| doubles as the chorus.
A|-2--2--22--3--|
E|--------------|

Interlude

I couldn't transcribe what's in this bit, but just playing an opn G major chord with a
clean tone sounds OK to me.

Open G - 
[ Tab from: http://www.guitartabs.cc/tabs/h/him/when_love_and_death_embrace_tab_ver_2.html ]
E|-3-|
B|-0-|
G|-0-|
D|-0-|
A|-2-|
E|-3-|

Chorus Again 

This is the chorus after the interlude. 

e|----------3----------------0----------------2-----------------------2-|
B|------------0----------------0------------3---3------------1------3---|
G|-------0------0----------0-----0--------4-------4--------0------2-----|
D|-----0----------0------2---------0----4-----------4----2------0-------|
A|---2-----------------2--------------2----------------3----------------|
E|-3-----------------0--------------------------------------------------|

Play this up until the solo

Solo

e-----------------------------------------------|
b-----------------------------------------------|
g-----------------------------------------------|
D-----5-4---------------------------------------|X 2
A----------2-0-2-------0-2---2b3-3r2-0----------|
E-3------------------3-----------------3-2---3--|



e-----------------------------------------------|
B-----------------------------------------------|
G---12-11---4-2-4---0-2-4---4b5-5r4-2-0---0-----|
D--9-------------------------------------4------| 
A-----------------------------------------------|
E-----------------------------------------------|

Repeat until the end of the song.

There, you're done. Whoopee!
Comments