Him - Vampire Heart Chords & Tabs

 

Vampire Heart Chords & Tabs

Him Chords & Tabs

Version: 5 Type: Tab

Vampire Heart Tab

Vampire Heart - H.I.M.
Standard Tuning
Tabbed by Heatnix (Sol de Vasq at rebel1872003@msn.com)
=======================================================

[These tabs start after the Keyboard intro.]
[Listen for correct timing.]

|--------------------------|
|--------------------------|
|--------------------------|
|--------------------------|
|-5-5--5-5-5--5-5-5--2-2-2-|
|-3-3--3-3-3--5-5-5--2-2-2-|

|------------------------------------|
|------------------------------------|
|------------------------------------|
|------------------------------------|
|-5/7--7-7-7-7-7-7--7/3--3-3-3-3-3-3-|
|-5/7--7-7-7-7-7-7--7/3--3-3-3-3-3-3-|

|------------------------------------|
|------------------------------------|
|------------------------------------|
|------------------------------------|
|-5/7--7-7-7-7-7-7--7/3--3-3-3-3-3-3-|
|-5/7--7-7-7-7-7-7--7/3--3-3-3-3-3-3-|

|--------------------------|
|--------------------------|
|--------------------------|
|--------------------------|
|-5-5--5-5-5--5-5-5--2-2-2-|
|-3-3--3-3-3--5-5-5--2-2-2-|

[Ville starts singing here.]
|------------------------------------|
|------------------------------------|
|------------------------------------|
|------------------------------------|
|-5/7--7-7-7-7-7-7--7/3--3-3-3-3-3-3-|
|-5/7--7-7-7-7-7-7--7/3--3-3-3-3-3-3-|

|------------------------------------|
|------------------------------------|
|------------------------------------|
|------------------------------------|
|-5/7--7-7-7-7-7-7--7/3--3-3-3-3-3-3-|
|-5/7--7-7-7-7-7-7--7/3--3-3-3-3-3-3-|

|--------------------------|
|--------------------------|
|--------------------------|
|--------------------------|
|-5-5--5-5-5--5-5-5--2-2-2-|
|-3-3--3-3-3--5-5-5--2-2-2-|

|------------------------------------|
|------------------------------------|
|------------------------------------|
|------------------------------------|
|-5/7--7-7-7-7-7-7--7/3--3-3-3-3-3-3-|
|-5/7--7-7-7-7-7-7--7/3--3-3-3-3-3-3-|
[ Tab from: http://www.guitartabs.cc/tabs/h/him/vampire_heart_tab_ver_5.html ]
|------------------------------------|
|------------------------------------|
|------------------------------------|
|------------------------------------|
|-5/7--7-7-7-7-7-7--7/3--3-3-3-3-3-3-|
|-5/7--7-7-7-7-7-7--7/3--3-3-3-3-3-3-|

|--------------------------|
|--------------------------|
|--------------------------|
|--------------------------|
|-5-5--5-5-5--5-5-5--2-2-2-|
|-3-3--3-3-3--5-5-5--2-2-2-|

[Palm Mute ALL]
|--------------------------------------------|
|--------------------------------------------|
|--------------------------------------------|
|--------------------------------------------|
|-3(x12)--5(x8)--5(x8)--3(x12)--5(x8)--5(x8)-|
|-3(x12)--3(x8)--5(x8)--3(x12)--3(x8)--5(x8)-|

[Palm Mute---------]
|-------------------------------|
|-------------------------------|
|-----------------------------4-|
|-----------------------------2-|
|-3(x12)-5(x8)-6(x8)-2-2(x11)---|
|-3(x12)-5(x8)-6(x8)-0-0(x11)---|

|-----------------------------------------------------|
|-----------------------------------------------------|
|-----------------------------------------------------|
|-----------------------------------------------------|
|-2--2-2-2--2--2-2-2-2--2--2-2-2--4--2--2-2-2--4--4---|
|-0--0-0-0--0--0-0-0-0--2--2-2-2--2--2--2-2-2--2--2---|

|----------------------------------------|
|----------------------------------------|
|---2-0----------2-0----------2-0--------|
|-0-----0-5-4--0-----0-5-4--0-----0-5-4--|
|----------------------------------------|
|----------------------------------------|

|-----------------------------------------------------|
|-----------------------------------------------------|
|-----------------------------------------------------|
|-----------------------------------------------------|
|-2--2-2-2--2--2-2-2-2--2--2-2-2--4--2--2-2-2--4--4---|
|-0--0-0-0--0--0-0-0-0--2--2-2-2--2--2--2-2-2--2--2---|

|------------------------------------------|
|------------------------------------------|
|---2-0----------2-0----------2-0----------|
|-0-----0-5-4--0-----0-5-4--0-----0-5-4----|
|---------------------------------------2.-|
|---------------------------------------0.-|

[Repeat again for second revolution of song.]