Him - Vampire Heart Chords & Tabs

 

Vampire Heart Chords & Tabs

Him Chords & Tabs

Version: 3 Type: Tab

Vampire Heart Tab

~~~~~~~~~~~~~~~~~~~~~~~~~~~~~~~~~~~~~~~~~~~~~~~~~~~~~
~~              HIM - Vampire Heart                ~~
~~~~~~~~~~~~~~~~~~~~~~~~~~~~~~~~~~~~~~~~~~~~~~~~~~~~~

Tabbed by: Tasos [6{SiC}6] Constantinou. (aka Timoros)

Intro:
E|--7--0--0--7--0--0--7--0--8--0--0--3--0--0--5--0-----------------|
B|-----------------------------------------------------------------|
G|-----------------------------------------------------------------|
D|-----------------------------------------------------------------|
A|-----------------------------------------------------------------|
E|-----------------------------------------------------------------|
[ Tab from: http://www.guitartabs.cc/tabs/h/him/vampire_heart_tab_ver_3.html ]
Riff: "...Hold me..." "...Love me..." part
E|-----------------------------------------------------------------|
B|-----------------------------------------------------------------|
G|-----------------------------------------------------------------|
D|--0-7-4-0-5-4-0-7-4-0-5-4-0--------------------------------------|
A|-----------------------------------------------------------------|
E|-----------------------------------------------------------------|

Heavier Riff:
E|--------------------------------------------|
B|--------------------------------------------|
G|----------------------------2~--------------|   Repeat 5 Times
D|--------------------------------------------|
A|--------------------------------------------|
E|--0-7-4-0-5-4-0-7-4-0-5-4-0-----------------|

E|--------------------------------------------|
B|--------------------------------------------|
G|--------------------------------2~----------|   Repeat 4 Times
D|--0-7-4-0-5-4-0-7-4-0-5-4-0-----------------|
A|--0-7-4-0-5-4-0-7-4-0-5-4-0-----------------|
E|--0-7-4-0-5-4-0-7-4-0-5-4-0-----------------|