Him - The Sacrament Chords & Tabs

 

The Sacrament Chords & Tabs

Him Chords & Tabs

Version: 2 Type: Bass Tab 0 ratings
1 star 2 stars 3 stars 4 stars 5 stars
comments

The Sacrament Bass Tab

   
HIM: The Sacrament [Album Version] (from „Love Metal“) 

Begins with the Piano Intro, then the Intro: 

G|----------------|----------------|----------------|----------------|
D|----------------|----------------|----------------|----------------|
A|3-3-3-3-3-3-3-3-|----------------|----------------|----------------|
E|----------------|5-5-5-5-5-5-5-5-|0-0-0-0-0-0-0-0-|0-0-0-0-0-0-0-0-| 3x 

G|----------------|----------------|----------------|----------------|
D|----------------|----------------|----------------|----------------|
A|3-3-3-3-3-3-3-3-|----------------|----------------|5-5-5-5-5-5-5-5-|
E|----------------|5-5-5-5-5-5-5-5-|0-0-0-0-0-0-0-0-|----------------| 1x 
(The Last “D” is actually a low one, but this here’s written for normal-tuned 4 Strings)

G|----------------|----------------|----------------|----------------|
D|----------------|----------------|----------------|----------------|
A|3-3-3-3-3-3-3-3-|----------------|----------------|----------------|
E|----------------|5-5-5-5-5-5-5-5-|3-5-0-----------|----------------| 1x 

Then the Verse A: 

G|----------------|----------------|----------------|----------------|
D|----------------|----------------|----------------|----------------|
A|----------------|3-3-3-3-3-3-3-3-|----------------|3-3-3-3-3-3-3-3-|
E|5-5-5-5-5-5-5-5-|----------------|5-5-5-5-5-5-5-5-|----------------|

Then the Verse B: 
[ Tab from: http://www.guitartabs.cc/tabs/h/him/the_sacrament_btab_ver_2.html ]
G|----------------|----------------|----------------|----------------|
D|----------------|----------------|----------------|----------------|
A|5-5-5-5-5-5-5-5-|7-7-7-7-7-7-7-7-|3-3-3-3-3-3-3-3-|----------------| 
E|----------------|----------------|----------------|3-3-3-3-3-3-3-3-| 3x 

G|----------------|----------------| 
D|----------------|----------------|  
A|5-------------5-|7-5-7-5-7-5-----|  
E|----------------|------------7-5-|  

No pause here, it goes straight on with the chorus:
A
G|----------------|----------------|----------------|----------------|
D|----------------|----------------|----------------|----------------|
A|3-3-3-3-3-3-3-3-|----------------|----------------|----------------|
E|----------------|5-5-5-5-5-5-5-5-|0-0-0-0-0-0-0-0-|0-0-0-0-0-0-0-0-| 3x 
B
G|----------------|----------------|----------------|----------------|
D|----------------|----------------|----------------|----------------|
A|3-3-3-3-3-3-3-3-|----------------|----------------|5-5-5-5-5-5-5-5-|
E|----------------|5-5-5-5-5-5-5-5-|0-0-0-0-0-0-0-0-|----------------| 1x 
C
G|----------------|----------------|----------------|----------------|
D|----------------|----------------|----------------|----------------|
A|3-3-3-3-3-3-3-3-|----------------|----------------|----------------|
E|----------------|5-5-5-5-5-5-5-5-|3-5-0-----------|----------------| 1x 

Verse A 
Verse B 
Chorus 
No Bass during this “The Sacrament is you” part – 
Chorus Variation (2x Part A, 1x Part A)
Chorus (without Part C)
Comments