Him - The Sacrament Chords & Tabs

 

The Sacrament Chords & Tabs

Him Chords & Tabs

Version: 1 Type: Bass Tab 0 ratings
1 star 2 stars 3 stars 4 stars 5 stars
comments

The Sacrament Bass Tab

Artist: HIM
Song: The Sacrament
Album: Love Metal (2003)

Piano Intro (Acoustic Grand Piano) arranged for guitar

All the notes are 8th's
Play this 4 times

E|---12--------------12--------------|--12--------------17--------------|
B|-------13--12--13------13--12--13--|------13--12--13------13--12--13--|
G|----------------------------------|----------------------------------|
D|------------------10--------------|----------------------------------|
A|---12------------------------------|--12------------------------------|
E|-----------------------------------|------------------12--------------|


                                                                        
--15------------------------------|-----------------------------------|
----------------------------------|-----------------------------------|
------16--14--16--12--16--14--16--|--12--16--14--16--12--16--14--16--|
----------------------------------|----------------------------------|
--10------------------------------|------------------10---------------|
----------------------------------|-----------------------------------|

And in the end

--15--------|
-------------|
---0--------|
-------------|
------------|
------------|

Now the bass tracks are quite easy

|---------------------------|--------------------------|
|--------------------------|--------------------------|
|--3--3--3--3--3--3--3--3--|--0--0--0--0--0--0--0--0--|
|------||---------------------------|--------------------------|


                                                        
--------------------------|---------------------------|
--------------------------|--------------------------|
--------------------------|--------------------------|
--0--0--0--0--0--0--0--0--|--0--0--0--0--0--0--0--0---||


                                                      
--------------------------|--------------------------|
--------------------------|--------------------------|
--3--3--3--3--3--3--3--3--|--0--0--0--0--0--0--0--0--|
--------------------------|--------------------------|


                                                      
--------------------------|--------------------------|
--------------------------|--------------------------|
--------------------------|--5--5--5--5--5--5--5--5--|
--0--0--0--0--0--0--0--0--|--------------------------|


                                                                         
--------------------------|--------------------------|------------------|
--------------------------|--------------------------|------------------|
--3--3--3--3--3--3--3--3--|--0--0--0--0--0-----------|------------------|
--------------------------|-----------------3--2--0--|------------------|


                                                                         
------------------|--------------------------|--------------------------|
------------------|--------------------------|--------------------------|
------------------|--0--0--0--0--0--0--0--0--|--0--0--0--0--0--0--0--0--|
------------------|--------------------------|--------------------------|


                                                      
--------------------------|--------------------------|
--------------------------|--------------------------|
--3--3--3--3--3--3--3--3--|--3--3--3--3--3--3--3--3--|
--------------------------|--------------------------|


                                                      
--------------------------|--------------------------|
--------------------------|--------------------------|
--0--0--0--0--0--0--0--0--|--0--0--0--0--0--0--0--0--|
--------------------------|--------------------------|


                                                      
--------------------------|--------------------------|
--------------------------|--------------------------|
--3--3--3--3--3--3--3--3--|--3--3--3--3--3--3--3--3--|
--------------------------|--------------------------|


                                                        
|---------------------------|--------------------------|
|*--------------------------|--------------------------|
|*--0--0--0--0--0--0--0--0--|--------------------------|
|---------------------------|--0--0--0--0--0--0--0--0--|


                                                        
--------------------------|---------------------------|
--------------------------|--------------------------
--3--3--3--3--3--3--3--3--|--------------------------|
--------------------------|--3--3--3--3--3--3--3--3---|


                                                      
--------------------------|--------------------------|
--------------------------|--------------------------|
--0--0--0--0--0--0--0--0--|--------------------------|
--------------------------|--0--0--0--0--0--0--0--0--|


                                                                            
--------------------------|--------------------------|---------------------|
--------------------------|--------------------------|---------------------|
--3--3--3--3--3--3--3--3--|--------------------------|--5--------------12--|
--------------------------|--3--3--3--3--3--3--3--3--|---------------------|


                                                                
----------------------------------|---------------------------|
----------------------------------|--------------------------|
--14--12--14--12--14--12----------|--3--3--3--3--3--3--3--3--|
--------------------------15--14--|---------------------------|


                                                      
--------------------------|--------------------------|
--------------------------|--------------------------|
--0--0--0--0--0--0--0--0--|--------------------------|
--------------------------|--0--0--0--0--0--0--0--0--|


                                                        
---------------------------|--------------------------|
--------------------------|--------------------------|
--------------------------|--3--3--3--3--3--3--3--3--|
--0--0--0--0--0--0--0--0---|--------------------------|


                                                      
--------------------------|--------------------------|
--------------------------|--------------------------|
--0--0--0--0--0--0--0--0--|--------------------------|
--------------------------|--0--0--0--0--0--0--0--0--|


                                                      
--------------------------|--------------------------|
--------------------------|--------------------------|
--5--5--5--5--5--5--5--5--|--3--3--3--3--3--3--3--3--|
--------------------------|--------------------------|


                                                                 
--------------------------|------------------|------------------|
--------------------------|------------------|------------------|
--0--0--0--0--0-----------|------------------|------------------|
-----------------3--2--0--|------------------|------------------|

[ Tab from: http://www.guitartabs.cc/tabs/h/him/the_sacrament_btab.html ]
                                                      
--------------------------|--------------------------|
--------------------------|--------------------------|
--0--0--0--0--0--0--0--0--|--0--0--0--0--0--0--0--0--|
--------------------------|--------------------------|


                                                      
--------------------------|--------------------------|
--------------------------|--------------------------|
--3--3--3--3--3--3--3--3--|--3--3--3--3--3--3--3--3--|
--------------------------|--------------------------|


                                                      
--------------------------|--------------------------|
--------------------------|--------------------------|
--0--0--0--0--0--0--0--0--|--0--0--0--0--0--0--0--0--|
--------------------------|--------------------------|


                                                      
--------------------------|--------------------------|
--------------------------|--------------------------|
--3--3--3--3--3--3--3--3--|--3--3--3--3--3--3--3--3--|
--------------------------|--------------------------|


                                                        
|---------------------------|--------------------------|
|*--------------------------|--------------------------|
|*--0--0--0--0--0--0--0--0--|--------------------------|
|---------------------------|--0--0--0--0--0--0--0--0--|


                                                        
--------------------------|---------------------------|
--------------------------|--------------------------|
--3--3--3--3--3--3--3--3--|--------------------------|
--------------------------|--3--3--3--3--3--3--3--3---|


                                                      
--------------------------|--------------------------|
--------------------------|--------------------------|
--0--0--0--0--0--0--0--0--|--------------------------|
--------------------------|--0--0--0--0--0--0--0--0--|


                                                                            
--------------------------|--------------------------|---------------------|
--------------------------|--------------------------|---------------------|
--3--3--3--3--3--3--3--3--|--------------------------|--5--------------12--|
--------------------------|--3--3--3--3--3--3--3--3--|---------------------|


                                                                
----------------------------------|---------------------------|
----------------------------------|--------------------------|
--14--12--14--12--14--12----------|--3--3--3--3--3--3--3--3--|
--------------------------15--14--|---------------------------|


                                                      
--------------------------|--------------------------|
--------------------------|--------------------------|
--0--0--0--0--0--0--0--0--|--------------------------|
--------------------------|--0--0--0--0--0--0--0--0--|


                                                        
---------------------------|--------------------------|
--------------------------|--------------------------|
--------------------------|--3--3--3--3--3--3--3--3--|
--0--0--0--0--0--0--0--0---|--------------------------|


                                                      
--------------------------|--------------------------|
--------------------------|--------------------------|
--0--0--0--0--0--0--0--0--|--------------------------|
--------------------------|--0--0--0--0--0--0--0--0--|


                                                      
--------------------------|--------------------------|
--------------------------|--------------------------|
--5--5--5--5--5--5--5--5--|--3--3--3--3--3--3--3--3--|
--------------------------|--------------------------|


                                                                 
--------------------------|------------------|------------------|
--------------------------|------------------|------------------|
--0--0--0--0--0-----------|------------------|------------------|
-----------------3--2--0--|------------------|------------------|

                                                        
|---------------------------|--------------------------|
|--------------------------|--------------------------|
|--3--3--3--3--3--3--3--3--|--0--0--0--0--0--0--0--0--|
|---------------------------|--------------------------|


                                                        
--------------------------|---------------------------|
--------------------------|--------------------------|
--------------------------|--------------------------|
--0--0--0--0--0--0--0--0--|--0--0--0--0--0--0--0--0---|


                                                      
--------------------------|--------------------------|
--------------------------|--------------------------|
--3--3--3--3--3--3--3--3--|--0--0--0--0--0--0--0--0--|
--------------------------|--------------------------|


                                                      
--------------------------|--------------------------|
--------------------------|--------------------------|
--------------------------|--5--5--5--5--5--5--5--5--|
--0--0--0--0--0--0--0--0--|--------------------------|


                                                      
--------------------------|--------------------------|
--------------------------|--------------------------|
--3--3--3--3--3--3--3--3--|--0--0--0--0--0-----------|
--------------------------|-----------------3--2--0--|


                                                      
--------------------------|--------------------------|
--------------------------|--------------------------|
--------------------------|--------------------------|
--0--0--0--0--0--0--0--0--|--0--0--0--0--0--0--0--0--|


                                                        
|---------------------------|--------------------------|
|--------------------------|--------------------------|
--3--3--3--3--3--3--3--3--|--0--0--0--0--0--0--0--0--|
|---------------------------|--------------------------|


                                                        
--------------------------|---------------------------|
--------------------------|--------------------------|
--------------------------|--------------------------|
--0--0--0--0--0--0--0--0--|--0--0--0--0--0--0--0--0---|


                                                      
--------------------------|--------------------------|
--------------------------|--------------------------|
--3--3--3--3--3--3--3--3--|--0--0--0--0--0--0--0--0--|
--------------------------|--------------------------|


                                                      
--------------------------|--------------------------|
--------------------------|--------------------------|
--------------------------|--5--5--5--5--5--5--5--5--|
--0--0--0--0--0--0--0--0--|--------------------------|


                                           
|--3--3--3--3--3--3--3--3--|
|---------------------------|-----
--------------------------|
--------------------------|


Comments