Him - The Funeral Of Hearts Chords & Tabs

 

The Funeral Of Hearts Chords & Tabs

Him Chords & Tabs

Version: 2 Type: Chords 0 ratings
1 star 2 stars 3 stars 4 stars 5 stars
comments

The Funeral Of Hearts Chords

   
THE FUNERAL OF HEARTS (Acoustic Version)


 Intro     Cmaj7/E     
|-------------0------|
|-------------1------|
|-------0-----0------|
|---2-----2---2------|
|-----2-----2-2------|
|-0-----------0------|

Verse 1

Em          D           G  
She was the sun shining upon
    Am           Em
The tomb of your hopes
    C          Em   Cmaj7/E Em(Upstroke)
And dreams so frail
Em         D             G     
He was the moon painting you 
          Am      Em    C        Em    D     
With it's glow so vulnerable and pale

Chorus

D          Em         Bm    
Love's the funeral of hearts
       C       G      D 
And an ode for cruelty
     Em         Bm
When angels cry blood
              C       G    D
On flowers of evil in bloom 
    Em         Bm
The funeral of hearts 
      C        G    D
And a plea for mercy
     Em        Bm 
When love is a gun
    C              G  D
Separating me from you 

             Cmaj7/E
|-------------0---------0----Upstroke--|
|-------------1---------0---------|----|
|-------0-----0---------0--<______|----|
|---2-----2---2---------2--<______|----|
|-----2-----2-2---------2--------------|
|-0-----------0---------0--------------|
[ Tab from: http://www.guitartabs.cc/tabs/h/him/the_funeral_of_hearts_crd_ver_2.html ]
Verse 2
Em          D            G 
She was the wind carrying in 
        Am           Em
All the troubles and fears
        C             Em   Cmaj7/E Em(Upstroke)
He for years tried to forget
Em          D                 G 
He was the fire, restless and wild
    Am  Em          C            Em    D  
And you were like a moth to that flame 

Chorus

D          Em         Bm    
Love's the funeral of hearts
       C       G      D 
And an ode for cruelty
     Em         Bm
When angels cry blood
              C       G    D
On flowers of evil in bloom 
    Em         Bm
The funeral of hearts 
      C        G    D
And a plea for mercy
     Em        Bm 
When love is a gun
    C              G  D
Separating me from you 

C           D           B   
The heretic seal beyond divine 
        C                  C
Pray to god who's deaf and blind
         D                    B       
The last nights, the souls on fire
             C                    C  D
Three little words and a question why
 
  Em       Esus4
|-0-0--0-0-0-0---0-0--|
|-0-0--0-0-0-0---0-0--|
|-1-1--1-1-2-2---1-1--|
|-2-2--2-2-2-2---2-2--|
|-2-2--2-2-2-2---2-2--|
|-0-0--0-0-0-0---0-0--|

End Chorus
 
           F#m        C#m 
Love's the funeral of hearts 
       D       A      E
And an ode for cruelty
     F#m        C#m
When angels cry blood
              D       A    E
On flowers of evil in bloom
    F#m        C#m
The funeral of hearts
      D        A    E
And a plea for mercy 
     F#m       C#m
When love is a gun 
    D              A  E
Separating me from you

Outro
              Dmaj7/F#
|--------------2--------|
|--------------3--------|
|-------2------2--------|
|---4-----4----4--------|
|-----4-----4--4--------|
|-2------------2--------|
Comments