Him - The Funeral Of Hearts Chords & Tabs

 

The Funeral Of Hearts Chords & Tabs

Him Chords & Tabs

Version: 1 Type: Bass Tab 0 ratings
1 star 2 stars 3 stars 4 stars 5 stars
comments

The Funeral Of Hearts Bass Tab

-------------------------------------------------------------------------------
			The Funeral Of Hearts - -H-I-M-
-------------------------------------------------------------------------------

Tabbed By:HIMfever

Tuning:Standard

G|---------------------------------------------------------------------------|
D|---------------------------------------------------------------------------|
A|---------------------------------------------------------------------------|
E|---2-2-2-2--2-2-2-2--0-0-0-0--0-0-0-0--5-5-5-5--5-5-5-5--7-7-7-7-7-5-4-4---| x2

singing starts...
G|---------------------------------------------------------------------------|
D|---------------------------------------------------------------------------|
A|---------------------------------------------------------------------------|
E|---2-2-2-2--2-2-2-2--0-0-0-0--0-0-0-0--5-5-5-5--5-5-5-5--7-7-7-7-7-5-4-4---|
   

G|---------------------------------------------------------------------------|
D|---------------------------------------------------------------------------|
A|-----------------------------------------------------------------2---------|
E|--2-2-2-2--2-2-2-2--0-0-0-0--0-0-0-0--2-2-2-2--2-2-2-2--2-2-2-2----2-4-0---|


G|---------------------------------------------------------------------------|
D|---------------------------------------------------------------------------|
A|---------------------------------------------------------------------------|
E|---2-2-2-2--2-2-2-2--0-0-0-0--0-0-0-0--5-5-5-5--5-5-5-5--7-7-7-7-7-5-4-4---|

G|---------------------------------------------------------------------------|
D|---------------------------------------------------------------------------|
A|---------------------------------------------------------------------------|
E|---2-2-2-2--2-2-2-2--0-0-0-0--0-0-0-0--------------------------------------|

Loves the Funeral Of Hearts............
G|---------------------------------------------------------------------------|
D|---------------------------------------------------------------------------|
A|---------------------------------------------------------------------------|x4
E|---2-2-2-2--2-2-2-2--0-0-0-0--0-0-0-0--5-5-5-5--5-5-5-5--7-7-7-7-7-5-4-4---|
[ Tab from: http://www.guitartabs.cc/tabs/h/him/the_funeral_of_hearts_btab.html ]
G|---------------------------------------------------------------------------|
D|---------------------------------------------------------------------------|
A|---------------------------------------------------------------------------|
E|---2-2-2-2--2-2-2-2--0-0-0-0--0-0-0-0--5-5-5-5--5-5-5-5--7-7-7-7-7-5-4-4---|
   

G|---------------------------------------------------------------------------|
D|---------------------------------------------------------------------------|
A|-----------------------------------------------------------------2---------|
E|--2-2-2-2--2-2-2-2--0-0-0-0--0-0-0-0--2-2-2-2--2-2-2-2--2-2-2-2----2-4-0---|


G|---------------------------------------------------------------------------|
D|---------------------------------------------------------------------------|
A|---------------------------------------------------------------------------|
E|---2-2-2-2--2-2-2-2--0-0-0-0--0-0-0-0--5-5-5-5--5-5-5-5--7-7-7-7-7-5-4-4---|

G|---------------------------------------------------------------------------|
D|---------------------------------------------------------------------------|
A|---------------------------------------------------------------------------|
E|---2-2-2-2--2-2-2-2--0-0-0-0--0-0-0-0--------------------------------------|

Solo:
G|---------------------------------------------------------------------------|
D|---------------------------------------------------------------------------|
A|---------------------------------------------------------------------------|x4
E|---2-2-2-2--2-2-2-2--0-0-0-0--0-0-0-0--5-5-5-5--5-5-5-5--7-7-7-7-7-5-4-4---|

After Solo:
G|---------------------------------------------------------------------------|
D|---------------------------------------------------------------------------|
A|---------------------------------------------------------------------------|
E|--2--0--4--5--7--5---4---2--0--4--5--7--9--7--5----5-5--7-7---222222222222-|

G|---------------------------------------------------------------------------|
D|---------------------------------------------------------------------------|
A|---------------------------------------------------------------------------|x3
E|---2-2-2-2--2-2-2-2--0-0-0-0--0-0-0-0--5-5-5-5--5-5-5-5--7-7-7-7-7-5-4-4---|

Thats it.later

===============================================================================
Comments