Him - Soul On Fire Chords & Tabs

 

Soul On Fire Chords & Tabs

Him Chords & Tabs

Version: 2 Type: Bass Tab 0 ratings
1 star 2 stars 3 stars 4 stars 5 stars
comments

Soul On Fire Bass Tab

   
-------------------------------------------------------------------------------
			     SOUL ON FIRE - H.I.M
-------------------------------------------------------------------------------



Tabbed By : LEE			
e-mail: 

Tuning: e

INTRO
G|---------------------------------------------------------------------------|
D|---------------------------------------------------------------------------|
A|---------------------------------------------------------------------------|
E|--0-0-15p0-15p0-0-14p0-14p0-0-10p0-10h12-----------------------------------| x 8


VERSE 1
G|---------------------------------------------------------------------------|
D|---------------------------------------------------------------------------|
A|---------------------------------------------------------------------------|
E|--0-0-15p0-15p0-0-14p0-14p0-0-10p0-10h12-----------------------------------| x 15 



G|---------------------------------------------------------------------------|
D|---------------------------------------------------------------------------|
A|--3-3--5-5-----------------------------------------------------------------|
E|------------12\------------------------------------------------------------|


CHORUS
G|---------------------------------------------------------------------------|
D|--------------------------------------------------------------------0------|
A|----------------------------------3333333333333333555555555555-------------|
E|--00000000000000000000000000000000------------------------------0h3--------|



G|---------------------------------------------------------------------------|
D|-----------------------------------------------------------------------0---|
A|----------------------------------000000000000000033333333--5-5-5----------|
E|--00000000000000002222222222222222---------------------------------0h3-----|



G|---------------------------------------------------------------------------|
D|---------------------------------------------------------------------------|
A|---------------------------------------------------------------------------|
E|--0-0-15p0-15p0-0-14p0-14p0-0-10p0-10h12-----------------------------------| x 4

[ Tab from: http://www.guitartabs.cc/tabs/h/him/soul_on_fire_btab_ver_2.html ]
VERSE 2
G|---------------------------------------------------------------------------|
D|---------------------------------------------------------------------------|
A|---------------------------------------------------------------------------|
E|--0-0-15p0-15p0-0-14p0-14p0-0-10p0-10h12-----------------------------------| x 15 



G|---------------------------------------------------------------------------|
D|---------------------------------------------------------------------------|
A|--3-3--5-5-----------------------------------------------------------------|
E|---------------------------------------------------------------------------|


BRIDGE
G|---------------------------------------------------------------------------|
D|---------------------------------------------------------------------------|
A|--3-3-3-3-3-3-3-2-0--------------------------------------------------------|
E|--------------------0-0-0-0-0-0-0-0----------------------------------------| x 2



G|---------------------------------------------------------------------------|
D|---------------------------------------------------------------------------|
A|--3-3-3-3-3-3-3-2-0-------------------0-0--0-0--0--3-3--5-5--5-------------|
E|--------------------0000000022222222---------------------------------------|



LAST CHORUS
G|---------------------------------------------------------------------------|
D|--------------------------------------------------------------------0------|
A|----------------------------------3333333333333333555555555555-------------|
E|--00000000000000000000000000000000------------------------------0h3--------|



G|---------------------------------------------------------------------------|
D|---------------------------------------------------------------------------|
A|----------------------------------0000000000000000-3-3-3-3-3-3-3-3-3-3-3-3-|
E|--00000000000000002222222222222222-----------------------------------------|



G|---------------------------------------------------------------------------|
D|---------------------------------------------------------------------------|
A|-3-3-3-3-3-3-3-3-3-3-3-3-3-3-3-3-------------------------------------------|
E|---------------------------------------------------------------------------|



G|---------------------------------------------------------------------------|
D|---------------------------------------------------------------------------|
A|---------------------------------------------------------------------------|
E|--0-0-15p0-15p0-0-14p0-14p0-0-10p0-10h12-----------------------------------| x 8




| /  slide up
| \  slide down
| h  hammer-on
| p  pull-off
| ~  vibrato
| +  harmonic
| x  Mute note
===============================================================================
Comments