Him - Sigilum Diaboli Chords & Tabs

 

Sigilum Diaboli Chords & Tabs

Him Chords & Tabs

Version: 1 Type: Bass Tab 0 ratings
1 star 2 stars 3 stars 4 stars 5 stars
comments

Sigilum Diaboli Bass Tab

   
Artist: HIM
Song: Sigillum Diaboli

                      
G-|--------------------------------------
D-|--------------------------------------x2
A-|--------------4/6666------------------
E-|-2/4444-2/4444------777-666-----------

G-|--------------------------------------
D-|--------------------------------------
A-|-4444444444444444444444444444444444444
E-|--------------------------------------

G-|--------------------------------------
D-|--------------------------------------x2
A-|--------------------------------------
E-|---4444444444444444-77777777-66666666-

G-|--------------------------------------
D-|--------------------------------------x2
A-|--------------4/6666------------------
E-|-2/4444-2/4444------777-666-----------

G-|---------------------------------------------------------------------------------
D-|---------------------------------------------------------------------------------
A-|-444444444444444444444444444444444444466666666666666666666677777777777777777777--
E-|---------------------------------------------------------------------------------
[ Tab from: http://www.guitartabs.cc/tabs/h/him/sigilum_diaboli_btab.html ]
G-|---------------------------------------
D-|---------------------------------------x3
A-|--------------4/6666-------------------
E-|-2/4444-2/4444------777-666------------


G-|---------------------------------------
D-|---------------------------------------x4
A-|-----------44444-6--44444-6-7----------
E-|---------------------------------------

Solo:

G-|---------------------------------------
D-|---------------------------------------x4
A-|--------------4/6666-------------------
E-|-2/4444-2/4444------777-666------------

G-|--------------------------------------------------
D-|--------------------------------------------------x2
A-|--------------------------------------------------
E-|-444444444444444444444444444444-77777777-66666666-

G-|---------------------------------------
D-|---------------------------------------x4
A-|--------------4/6666-------------------
E-|-2/4444-2/4444------777-666------------

G-|--------------------------------------
D-|--------------------------------------x4
A-|--------------------------------------
E-|---4444444444444444-77777777-66666666-



ThAtS It....... Baby Join Me In Death....
Comments