Him - Right Here In My Arms Chords & Tabs

 

Right Here In My Arms Chords & Tabs

Him Chords & Tabs

Version: 6 Type: Tab 0 ratings
1 star 2 stars 3 stars 4 stars 5 stars
comments

Right Here In My Arms Tab

   
Artist: HIM
Album: Razorblade Romance
Song: Right Here In My Arms

Standard Tuning(EBGDAE)

/// = Pick Scrape
~ = Let Ring
PM = Palm Muted
H = Hammer-on
P = Pull-off

Intro(Clean):
|------7----------7----|
|----8----------8------|
|--------5----------5--|
|-7----------7---------|
|----------------------|
|----------------------|(Just repeat this over a couple of times)

Intro(Dist.):
|------------------------------------|-----|
|------------------------------------|-----|
|-----5~----------------5~-----------|-----|
|-7~--5~--5~---2~---7~--5~--5~---2~--|--7~-|
|-7~--3~--5~---2~---7~--3~--5~---2~--|--7~-|
|-5~------3~---0~---5~------3~---0~--|--5~-|

Verse:
|------------------------------------------------------------------------|
|------------------------------------------------------------------------|
|------------------------------------------------------------------------|
|------------------------------------------------------------------------|
|-////////-------------------33333333------------------------------------|
|-////////--5555555555555555----------33333333--555555555555555555555555-|
            PM--------------||-------||-------| |-----------------------|

Pre-chorus:
|---------------------------------------------------------|
|---------------------------------------------------------|
|---------------------------------------------------------|
|-7--7--7-7-7--2--2--2-2-2--3--3--3-3-3--3-3-3-3-3-3-3-3--|
|-7--7--7-7-7--2--2--2-2-2--3--3--3-3-3--3-3-3-3-3-3-3-3--|
|-5--5--5-5-5--0--0--0-0-0--1--1--1-1-1--1-1-1-1-1-1-1-1--|

Chorus:
|---------------------------------------------------------------|
|---------------------------------------------------------------|
|-----------------5--5-5----------------------------------------|
|-7--7-7-7-7-7-7--5--5-5--5--5-5--2--2-2-2-2-2-2--3--3-3--5-5-5-|(Play this
|-7--7-7-7-7-7-7--3--3-3--5--5-5--2--2-2-2-2-2-2--3--3-3--5-5-5-| a few
|-5--5-5-5-5-5-5----------3--3-3--0--0-0-0-0-0-0--1--1-1--3-3-3-| times)
|
|Then:
|-----|
|-----|
|-----|
|-7~--|
|-7~--|
|-5~--|

Solo(Not sure what effect Lily Lazer is using):
|---------------------------------------------------------|
|---------------------------------------------------------|
|-9h11~--9-7~--6~----------------------------4h6-6h7--9b--|
|------------------5h7--4-2-0------------7h9--------------|
|-----------------------------4-0-4-5-2-------------------|
|---------------------------------------------------------|
|
|-12---10----9--------14----|
|-15b--13b--12b--12---17b---|
|----------------14b--------|
|---------------------------|
|---------------------------|
|---------------------------|
[ Tab from: http://www.guitartabs.cc/tabs/h/him/right_here_in_my_arms_tab_ver_6.html ]
Or if you prefer play the solo this way:
|----------------------------------------------|
|--3-2~--0-------------------------------------|
|-----------2----------------------------------|
|--------------2--4-4-4-4-4-4--2--4-4-4-4-4-4--|
|----------------------------------------------|
|----------------------------------------------|
|
|-----------------------------------------------------------|
|---------------------------2-2-2-2-2-2-2-2-2-3-3-3-3-3-3-3-|
|---4-4-4-4-4-4-4-4-4-4-4-4---------------------------------|
|-4---------------------------------------------------------|
|-----------------------------------------------------------|
|-----------------------------------------------------------|
|
|-2--2--2-2-2--0--2--2-2-2--14-14-14-14-14-14-14-14-14-14-14-14-|
|---------------------------------------------------------------|
|---------------------------------------------------------------|
|---------------------------------------------------------------|
|---------------------------------------------------------------|
|---------------------------------------------------------------|
|
|----12-12-12-12-12-12-12-12-12-12-12-12-|
|----------------------------------------|
|-11-------------------------------------|
|----------------------------------------|
|----------------------------------------|
|----------------------------------------|
|
|----10-10-10-10-10-10-10-10-10-10-10-10----9-9-9-9-9-9-9-9-9-9-9-9--|
|--------------------------------------------------------------------|
|-11-------------------------------------11--------------------------|
|--------------------------------------------------------------------|
|--------------------------------------------------------------------|
|--------------------------------------------------------------------|
|
|---7-7-7-7-7-7-7-7-7-7-7-7---5-5-5-5-5-5-5-5-5-5-5-5-|
|-7-------------------------7-------------------------|
|-----------------------------------------------------|
|-----------------------------------------------------|
|-----------------------------------------------------|
|-----------------------------------------------------|
|
|---------------------------|
|-5--7-7-7-7-7-7--5-7-7-7---|
|---------------------------|
|---------------------------|
|---------------------------|(use the second solo if u haven\'t got whatever
|---------------------------| effect he uses. both sound good.)

Break(And she\'ll be right here in my arms arms...):
|-----------------------------------------------------|
|-----------------------------------------------------|
|-----------------------------------------------------|
|-2-4-2-4-2-4-2-4-2-4-2-4-2-4-2-4-2-4-2-4-2-4-2-4-2-4-|
|-----------------------------------------------------|
|-----------------------------------------------------|

Chorus 2:
|---------------------------------------------------------------|
|---------------------------------------------------------------|
|-4--4-4-4-4-4-4--7--7-7----------------------------------------|
|-4--4-4-4-4-4-4--7--7-7-7--7-7--4--4-4-4-4-4-4--5--5-5--7--7-7-|(keep
|-2--2-2-2-2-2-2--5--5-5-7--7-7--4--4-4-4-4-4-4--5--5-5--7--7-7-| playin
|------------------------5--5-5--2--2-2-2-2-2-2--3--3-3--5--5-5-| till end)

Thats all the riffs, you figure where they go and how many times to play them, i\'m
pretty sure this is accurate, both solo\'s sound good but use the second one if you
don\'t have the effect that Lily Lazer is using. Simple stuff. Great song.

PLEASE RATE!

Thanks!
Comments