Him - Right Here In My Arms Chords & Tabs

 

Right Here In My Arms Chords & Tabs

Him Chords & Tabs

Version: 1 Type: Tab 2 ratings
1 star 2 stars 3 stars 4 stars 5 stars
comments

Right Here In My Arms Tab

##################################################################################
# This file is the author's own work and represents their interpretation of the  #
# song. You may only use this file for private study, scholarship, or research.  #
##################################################################################

:him - right here in my arms

:tabbed by rylos@web.de

:intro

e|-----|                 |---------|
B|-----|                 |---------|
G|-----|                 |---7-----|
D|---5-| play once, then |-7---7---| play several times
A|-3---|                 |-------5-|
D|-----|                 |---------|

e|-----------|-----------|-----------|-----------|-----------|-----------|
B|-----------|-----------|-----------|-----------|-----------|-----------|
G|-----------|-----------|-----------|-----------|-----------|-----------|
D|-7---------|-10--------|-5---------|-2---------|-----------|-7---------|
A|-7---------|-10--------|-5---------|-2---------|-----------|-7---------|
D|-7---------|-10--------|-5---------|-2---------|-----------|-7---------|

:verse

:prechorus

e|-----------|-----------|-----------|-----------|
B|-----------|-----------|-----------|-----------|
G|-----------|-----------|-----------|-----------|
D|-7-7-7-7-7-|-2-2-2-2-2-|-3-3-3-3-3-|-3-3-3-3-3-|
A|-7-7-7-7-7-|-2-2-2-2-2-|-3-3-3-3-3-|-3-3-3-3-3-|
D|-7-7-7-7-7-|-2-2-2-2-2-|-3-3-3-3-3-|-3-3-3-3-3-|


:chorus
[ Tab from: http://www.guitartabs.cc/tabs/h/him/right_here_in_my_arms_tab.html ]
e|-----------|-----------|-----------|-----------|-----------|-----------|
B|-----------|-----------|-----------|-----------|-----------|-----------|
G|-----------|-----------|-----------|-----------|-----------|-----------|
D|-7-7-7-7-7-|-7-7-101010|10-5-5-5-5-|-2-2-2-2-2-|-2-2-3-3-3-|-3-2-2-2-2-|
A|-7-7-7-7-7-|-7-7-101010|10-5-5-5-5-|-2-2-2-2-2-|-2-2-3-3-3-|-3-2-2-2-2-|
D|-7-7-7-7-7-|-7-7-101010|10-5-5-5-5-|-2-2-2-2-2-|-2-2-3-3-3-|-3-2-2-2-2-|

she'll be right here in my arms, so in love

e|-----------|
B|-----------|
G|-----------|
D|-7---------|
A|-7---------|
D|-7---------|

oh no

:solo

this is a synthesizer solo, but if you got a real assi effect you can play it on guitar

solo tabbed by spider
e|-----------------------------------------------------------------------------|
B|-5-3-1-0-------------------------------------------------------3-5-7-9-11-12-|
G|---------2------------------------11\---9\---7\---5\---0-1-3-5---------------|
D|-----------3-2------------------9-----9----9----9----2-----------------------|
A|---------------3-2-0--0-2-3-5-7----------------------------------------------|
D|-----------------------------------------------------------------------------|

:outro

e|-----------|-----------|-----------|-----------|-----------|-----------|
B|-----------|-----------|-----------|-----------|-----------|-----------|
G|-----------|-----------|-----------|-----------|-----------|-----------|
D|-9-9-9-9-9-|-9-9-121212|12-7-7-7-7-|-4-4-4-4-4-|-4-4-2-2-2-|-2-4-4-4-4-|
A|-9-9-9-9-9-|-9-9-121212|12-7-7-7-7-|-4-4-4-4-4-|-4-4-2-2-2-|-2-4-4-4-4-|
D|-9-9-9-9-9-|-9-9-121212|12-7-7-7-7-|-4-4-4-4-4-|-4-4-2-2-2-|-2-4-4-4-4-|
Comments