Him - Right Here In My Arms Chords & Tabs

 

Right Here In My Arms Chords & Tabs

Him Chords & Tabs

Version: 1 Type: Bass Tab 0 ratings
1 star 2 stars 3 stars 4 stars 5 stars
comments

Right Here In My Arms Bass Tab

Right Here In My Arms - HIM |
----------------------------

TAB: by Big M
e-mail: Big_Mx@gmx.de

Intro
G|-----------------|-----------------|-----------------|-----------------|
D|-----------------|-----------------|-----------------|-----------------|
A|-----------------|-3-3-3-3---------|-----------------|-----------------|
E|-5-5-5-5-5-5-5-5-|---------3-3-3-3-|-0-0-0-0-0-0-0-0-|-0-0-0-0-0-0-0-0-|

Verse
G|-----------------|-----------------|-----------------|-----------------|
D|-----------------|-----------------|-----------------|-----------------|
A|-----------------|-----------------|-----------------|-----------------|
E|-5-5-5-5-5-5-5-5-|-5-5-5-5-5-5-5-5-|-5-5-5-5-5-5-5-5-|-5-5-5-5-5-5-5-5-|

G|-----------------|-----------------|-----------------|-----------------|
D|-----------------|-----------------|-----------------|-----------------|
A|-----------------|-----------------|-3-3-3-3-3-3-3-3-|-----------------|
E|-5-5-5-5-5-5-5-5-|-5-5-5-5-5-5-5-5-|-----------------|-3-3-3-3-3-3-3-3-|
[ Tab from: http://www.guitartabs.cc/tabs/h/him/right_here_in_my_arms_btab.html ]
Fig.1
G|-----------------|-----------------|-----------------|-----------------|
D|-----------------|-----------------|-----------------|-----------------|
A|-----------------|-3-3-3-3-3-3-3-3-|-----------------|-----------------|
E|-5-5-5-5-5-5-5-5-|-----------------|-3-3-3-3-3-3-3-3-|-3-3-3-3-3-3-3-3-|

Chorus
G|-----------------|-----------------|-----------------|-----------------|
D|-----------------|-----------------|-----------------|-----------------|
A|-----------------|-3-3-3-3---------|-----------------|-----------------|
E|-5-5-5-5-5-5-5-5-|---------3-3-3-3-|-0-0-0-0-0-0-0-0-|-1-1-1-1-3-3-3-3-|

Solo
G|-----------------|-----------------|-----------------|-----------------|
D|-----------------|-----------------|-----------------|-----------------|
A|-----------------|-6-6-6-6---------|-----------------|-----------------|
E|-8-8-8-8-8-8-8-8-|---------6-6-6-6-|-3-3-3-3-3-3-3-3-|-1~~-3-3-3-3-3-3-|

----------------
Song structure: |
----------------
Intro     2x
Verse     4x
Fig.1     1x
Chorus    4x
Verse     2x
Fig.1     1x
Chorus    4x
Solo      4x
rest
Chorus    8x

Comments