Him - Razorblade Kiss Chords & Tabs

 

Razorblade Kiss Chords & Tabs

Him Chords & Tabs

Version: 5 Type: Tab 0 ratings
1 star 2 stars 3 stars 4 stars 5 stars
comments

Razorblade Kiss Tab

solo
bam also plays this when he is bashing his brother
Razorblade kiss 
HIM

|--------------------------|---------------------------|
|--------------------------|---------------------------|
|--------------------------|---------------------------|
|--------------------------|-----6----9--9--6-6\9/-6---|
|-------------7--7-7~7-----|--7----------------------7\|
|--19\-----9------------9--|---------------------------|

|--------------------------|--------------------------|
|--------------------------|--------------------------|
|--------------------------|--------------------------|
|-----6----9--9--6-6\9/-6--|-------------------9~-----|
|--9-----------------------|--7\-9~-------9/11----11--|
|--------------------------|--------------------------|

|-------------------------|---------|----------------------------|
|-------------------------|---------|--9-9--9-9--9-9--9-9--9-9---|
|-----9----6~-------------|--9--6~--|----------------------------|
|--9---------------9------|---------|----------------------------|
|-------------9/11----11--|---------|----------------------------|
|-------------------------|---------|----------------------------|

|-------------|------------------------|--7r---------------------|
|--7h9p7------|--9r------7-------------|----------9-----7--------|
|--------9-8~-|-------6-----6--9--6----|-------6-----6-----9--8--|
|-------------|------------------------|-------------------------|
|-------------|------------------------|-------------------------|
|-------------|------------------------|-------------------------|
[ Tab from: http://www.guitartabs.cc/tabs/h/him/razorblade_kiss_tab_ver_5.html ]
|------------------------------------------------------------|
|--5--5h7p5h7p5h7p5h7p5h7p5h7p5h7p5h7p5h7p5h7p5h7p5h7p5h7p5h7|
|------------------------------------------------------------|
|------------------------------------------------------------|
|------------------------------------------------------------|
|------------------------------------------------------------|

|------------------------------------------------------------|
|--7-7h9p7h9p7h9p7h9p7h9p7h9p7h9p7h9p7h9p7h9p7h9p7h9p7h9p7h9p|
|------------------------------------------------------------|
|------------------------------------------------------------|
|------------------------------------------------------------|
|------------------------------------------------------------|

|---9---9--9--9---9--9--9---9--9--9----------------|
|--------------------------------------------------|
|--------------------------------------------------|
|--------------------------------------------------|
|--------------------------------------------------|
|--------------------------------------------------|

|--11--11-11-11--11-11-11--11-11-11------|
|----------------------------------------|
|----------------------------------------|
|----------------------------------------|
|----------------------------------------|
|----------------------------------------|

|--12--12-12-12--12-12-12--12-12-12------|
|----------------------------------------|
|----------------------------------------|
|----------------------------------------|
|----------------------------------------|

|--14--14-14-14--14-14-14--14-14-14------|
|----------------------------------------|
|----------------------------------------|
|----------------------------------------|
|----------------------------------------|
|----------------------------------------|
Comments