Him - Our Diabolical Rapture Chords & Tabs

 

Our Diabolical Rapture Chords & Tabs

Him Chords & Tabs

Version: 1 Type: Tab 1 rating
1 star 2 stars 3 stars 4 stars 5 stars
comments

Our Diabolical Rapture Tab

   
##################################################################################
# This file is the author's own work and represents their interpretation of the  #
# song. You may only use this file for private study, scholarship, or research.  #
##################################################################################


HIM
Album:Greatest Lovesongs Vol.666
By Elias Stypas

Our Diabolical Rapture


        RIFFI

|--------------------------|
|--------------------------|
|--------------------------|
|--------------------------| * 3
|--------------------------|
|-8-0-0-7-0-0-5-0-0-3h5-3~-|

|--------------------------|
|--------------------------|
|--------------------------|
|-------------------5h7-5~-|
|--------------------------|
|-8-0-0-7-0-0-5-0-0--------|


RIFFI

|---------------------------|
|---------------------------|
|---------------------------|
|-5-5-5-5-5-5-5-5-5-5-5-5-5-|


|-----------------------------------------------------|
|-----------------------------------------------------|
|-----------------------------------------------------|
|-----------------------------------------------------|
|-----------------------------------------------------|
|-8-0-0-7-0------------------5-0-0-3-0----------------|


Dm
|-----------------------------------------------------|
|-----------------------------------------------------|
|-----------------------------------------------------|
|-----------------------------------------------------|
|-----------------------------------------------------|
|-8-0-0-7-0------------------5-0-0-3-0----------------|



RIFFI

|---------------------------|
|---------------------------|
|---------------------------|
|-5-5-5-5-5-5-5-5-5-5-5-5-5-|

[ Tab from: http://www.guitartabs.cc/tabs/h/him/our_diabolical_rapture_tab.html ]
|-----------------------------------------------------|
|-----------------------------------------------------|
|-----------------------------------------------------|
|-----------------------------------------------------|
|-----------------------------------------------------|
|-8-0-0-7-0------------------5-0-0-3-0----------------|



|-----------------------------------------------------|
|-----------------------------------------------------|
|-----------------------------------------------------|
|-----------------------------------------------------|
|-----------------------------------------------------|
|-8-0-0-7-0------------------5-0-0-3-0----------------|




D5   C5          F5   G5
Your love is the only thing I
                         |--------|
                         |--------|
                         |--------|
                         |--------|
                         |--------|
D5       C5      F5 G5   |-5~---1-|
live for in this world






From : The maddest fan of HIM in Greece!!!!!!!! 
Dedicated to : R. C. 
Any comments : ilias1892@yahoo.gr




***************************************************************************************************************

***************************************************************************************************************




HIM - Love You Like I Do 

©tabbed by Alex Behrens (abe99@gmx.net)

Main Riff
  [Gm]     [F]                 Fill Riff
e-|---------------|        e-|-------------
h-|---------------|        h-|-------------
g-|---------------|        g-|-------------
D-|---------------|        D-|------0--1~--
A-|---------------|        A-|-1--3--------
E-|-3~--5h6-1~----|        E-|-------------

Comments