Him - Loves Requiem Chords & Tabs

 

Loves Requiem Chords & Tabs

Him Chords & Tabs

Version: 1 Type: Bass Tab 0 ratings
1 star 2 stars 3 stars 4 stars 5 stars
comments

Loves Requiem Bass Tab

artist:HIM
album:love metal
tabber:nick

intro/chorus/ending
|-------------------------------------|x6
|-------------------------------------|
|---7h9-7-5-----5-----7h9-7-5-----5h7-|
|-0---------5h7-----0---------5h7-----|

verse
|--------|
|--------|
|-3-0----|
|----3-0-|

|-------------------------------------|x2
|-------------------------------------|
|---7h9-7-5-----5-----7h9-7-5-----5h7-|
|-0---------5h7-----0---------5h7-----|


|--------|
|--------|
|-3-0----|
|----3-0-|

|-------------------------------------|x4
|-------------------------------------|
|---7h9-7-5-----5-----7h9-7-5-----5h7-|
|-0---------5h7-----0---------5h7-----|
[ Tab from: http://www.guitartabs.cc/tabs/h/him/loves_requiem_btab.html ]
|--------|
|--------|
|-3-0----|
|----3-0-|

|-------------------------------------|x2
|-------------------------------------|
|---7h9-7-5-----5-----7h9-7-5-----5h7-|
|-0---------5h7-----0---------5h7-----|

|--------|
|--------|
|-3-0----|
|----3-0-|

|-------------------------------------|x6
|-------------------------------------|
|---7h9-7-5-----5-----7h9-7-5-----5h7-|
|-0---------5h7-----0---------5h7-----|

|--------|
|--------|
|-3-0----|
|----3-0-|

|-------------------------------------|(for the rest of the song)
|-------------------------------------|
|---7h9-7-5-----5-----7h9-7-5-----5h7-|
|-0---------5h7-----0---------5h7-----|

any questions or corrections just e-mail me at: heartagram_him_cky@hotmail.com
Comments