Him - Lose You Tonight Chords & Tabs

 

Lose You Tonight Chords & Tabs

Him Chords & Tabs

Version: 2 Type: Tab 0 ratings
1 star 2 stars 3 stars 4 stars 5 stars
comments

Lose You Tonight Tab

Lose You Tonight by Him
(His Infernal Majesty)
normal tuning

Play 4 times
e--------------------------|
b--------------------------|
g--------------------------|
d--------------------------|
a--------------------------|
e-4--2-4--2-4-2-4--2-4-2-4-|

Main Riff:
Play 4 times
e--------------------------|
b--------------------------|
g--------------------------|
d--------------------------|
a--------------------------|
e-6--4-6--4-6-4-6--4-6-4-6-|

Verse with Bass only
[ Tab from: http://www.guitartabs.cc/tabs/h/him/lose_you_tonight_tab_ver_2.html ]
chorus
e(4)-(6)------(3)--------|(4)
b(4)-(6)------(3)--------|(4)
g(4)-(6)------(3)--------|(4)
d-4---6--------3-------4-|
a-4---6--------3-------4-|
e-2---4--------1-------2-|


Solo-Thing

e------------------------------------------|
b-s7-----s7-6-4-4h6--2-----s6---s6-4-2-2h4-|
g----------------------3-------------------|
d------------------------------------------|
a------------------------------------------|
e------------------------------------------|

e-6----6-8-8s9-8-4----9---11s13-11-9-9h11-|
b-6----------------6--9-------------------|
g-6-------------------9-------------------|
d-8---------------------------------------|
a-----------------------------------------|
e-----------------------------------------|
Then to Chorus then to second intro riff out
Comments