Him - Lose You Tonight Chords & Tabs

 

Lose You Tonight Chords & Tabs

Him Chords & Tabs

Version: 1 Type: Bass Tab

Lose You Tonight Bass Tab

Band: HIM
Album: Deep Shadows and Brilliant Highlights(2001)
Title: Lose you tonight 

Play the Intro and the Interlude with distortion. A Fuzz-pedal 
is better. The rest you can also play with distortion if you want to.

Intro(4x) Also playable with guitar.

G|---------------------------|
D|-6--4-6--4-6-4-6--4-6--4-6-|
A|---------------------------|
E|---------------------------|

Verse(8x)

G|---------------------------|
D|---------------------------|
A|---------------------------|
E|-6--4-6--4-6-4-6--4-6--4-6-|

Chorus I(3x)                then,Chorus II(1x)
[ Tab from: http://www.guitartabs.cc/tabs/h/him/lose_you_tonight_btab.html ]
G|---------------------|         G|------------|
D|---------------------|         D|------------|
A|---------------------|         A|------------|
E|-2----4----1----2----|         E|-2----4-----|

Interlude(4x) Also playable with guitar. 

G|---------------------------|
D|-8--6-8--6-8-6-8--6-8--6-8-|
A|---------------------------|
E|---------------------------|

Verse(4x)
Chorus I (3x)
Chorus II (1x)

During the solo

I donīt really know if there is a bass, but I think itīs ok 
to play this during the solo. Iīm not sure about the last note.

G|------------------------------------------------------|
D|-1-------------------------1--------------------------|
A|-------1------4-------------------1------4------6-----|
E|---------------------4--------------------------------|

Chorus I(3x)
Chorus II(1x)
Chorus I(3x)
Chorus II(1x)
Verse(8x)