Him - Join Me Chords & Tabs

 

Join Me Chords & Tabs

Him Chords & Tabs

Version: 6 Type: Tab 0 ratings
1 star 2 stars 3 stars 4 stars 5 stars
comments

Join Me Tab

/*	tabbed by: christopher lindner	*/
/*	e-mail:	   mailtobam@gmx.at	*/
/*	artist:    HIM			*/
/*	song:      Join Me		*/

		=========================
		      HIM - JOIN ME
		=========================
		album: Razorblade Romance
		-------------------------

-> there are many complicated or bad tabs for this song
-> so i decided to tab an easy and good sounding one ;-)

-> Standard Tuning


KEYBOARD INTRO
==============
-> if you got no keyboard, use this:

e|--0--7--14--16-----|-----4--11--12-----|--------6--7--| 3x
H|-------------------|--2----------------|-----4--------|
G|-------------------|-------------------|--1-----------|
D|-------------------|-------------------|--------------|
A|-------------------|-------------------|--------------|
E|-------------------|-------------------|--------------|
*after the 2nd time you played this, the guitar intro starts

e|--0--7--14--16-----|--2--9--16--18--| 1x
H|-------------------|----------------|
G|-------------------|----------------|
D|-------------------|----------------|
A|-------------------|----------------|
E|-------------------|----------------|


INTRO
=====

e|------------------------------------------------------| 1x
H|------------------------------------------------------|
G|------------------6--6--------------------------------|
D|--4-4-2-2---2-----6--6----6--6----6--6--4-4-2-2-----4-|
A|--4-4-2-2---2-----4--4----6--6----6--6--4-4-2-2-----4-|
E|--2-2-0-0---0-------------4--4----4--4--2-2-0-0-----2-|


VERSE1
======
-> play the hole verse palm muted OR silent!
-> you can also use powerchords instead of the single picks... 

part1
e|-----------------------------------------------------------------|
H|-----------------------------------------------------------------|
G|-----------------------------------------------------------------|
D|-----------------------------------------------------------------|
A|-----------------6-6-6-6-6-6-6-6-----------------6-6-6-6-6-6-6-6-|
E|-4-4-4-4-4-4-4-4-----------------4-4-4-4-4-4-4-4-----------------|

e|-----------------------------------------------------------------|
H|-----------------------------------------------------------------|
G|-----------------------------------------------------------------|
D|-----------------------------------------------------------------|
A|-----------------6-6-6-6-6-6-6-6-4-4-4-4-4-4-4-4-----------------|
E|-4-4-4-4-4-4-4-4---------------------------------2-2-2-2-2-2-2-2-|

part 2
e|-----------------------------------------------------------------|
H|-----------------------------------------------------------------|
G|-----------------------------------------------------------------|
D|-----------------------------------------------------------------|
A|-----------------6-6-6-6-6-6-6-6-----------------6-6-6-6-6-6-6-6-|
E|-4-4-4-4-4-4-4-4-----------------4-4-4-4-4-4-4-4-----------------|
[ Tab from: http://www.guitartabs.cc/tabs/h/him/join_me_tab_ver_6.html ]
e|--------------------------------------------------|
H|--------------------------------------------------|
G|--------------------------------------------------|
D|--------------------------------------------------|
A|-----------------6-6-6-6-6-6-6-6-4-4-4-4-4-4-4-4--|
E|-4-4-4-4-4-4-4-4----------------------------------|


CHORUS
======

e|--------| 1x
H|--------|
G|--------|
D|--4--4--|
A|--4--4--| * mute the strings after you played them!
E|--2--2--|   (if you can't figure it out - listen to the song!)
      
e|-------------------------------------------| 3x
H|-------------------------------------------|
G|-----------------6---6---------------------|
D|--4-4-2-2---2----6---6-----6---6-----6---6-|
A|--4-4-2-2---2----4---4-----6---6-----6---6-|
E|--2-2-0-0---0--------------4---4-----4---4-|
	
e|---------------| 1x
H|---------------|
G|---------------|
D|--4-4-2-2---4--|
A|--4-4-2-2---4--|
E|--2-2-0-0---2--|


VERSE2
======
-> just play part 2 from the first verse!


CHORUS2
=======
-> just like the first chorus!


INTERLUDE
=========
-> is played directly after the second chorus

e|-------------------------| 1x
H|-------------------------|
G|-------------------------|
D|--6---6---6---6---6---6--|
A|--6---6---6---6---6---6--|
E|--4---4---4---4---4---4--|

now theres a keyboard part again
it's played just like in the intro

after the first keyboard riff was played 2 times,
this guitar part starts:

e|----------------------------------------------------| 1x
H|----------------------------------------------------|
G|------------6------------------------------------6--|
D|--2---------6---------6~---------------2---------6--|
A|--2---------4---------6~---------------2---------4--|
E|--0-------------------4~---------------0------------|
*let the powerchords ring

then the singer of the band (ville valo) shouts:
"this life ain't worth living!"

-> now, play the CHORUS again, but without the two first chords!
-> after this chorus add this last thing:

e|-----| 1x
H|-----|
G|-----|
D|--6--|
A|--6--|
E|--4--|

that's it! enjoy, and rock on! comments & corrections to mailtobam@gmx.at



LYRICS/STRUCTURE:
=================
 
INTRO
-----
Baby join me in death (3)

VERSE1
------
We are so young
our lives have just begun
but already we're considering
escape from this world
and we've waited for so long
for this moment to come
was so anxious to be together
together in death, uohuoh

CHORUS
------
Won't you die tonight for love
Baby join me in death
Won't you die
Baby join me in death
Won't you die tonight for love
Baby join me in death

VERSE2
------
This world is a cruel place
and we're here only to lose
so before life tears us apart
let death bless me with you

CHORUS2 (like the first one)
-------

INTERLUDE
---------
 this live ain't worth living (4x)

CHORUS2 (like the first one)
-------

END
---
 Baby join me in death
Comments