Him - Join Me Chords & Tabs

 

Join Me Chords & Tabs

Him Chords & Tabs

Version: 5 Type: Tab 0 ratings
1 star 2 stars 3 stars 4 stars 5 stars
comments

Join Me Tab

   
Info:	 |---| -> Muted


    Piano                                                     
E||------------------|------------------|------------------|
B||------------------|------------------|------------------|
G||------------------|------------------|------------------|
D||------------------|------------------|------------------|
A||------------------|------------------|------------------|
E||------------------|------------------|------------------|


  Intro 
|------------------|------------------|------------------|
|------------------|------------------|------------------|
|------------------|------------------|------------------|
|------------------|------------------|------------------|
|------------------|------------------|------------------|
|------------------|------------------|------------------|


          		   	     	    E			E                
|------------------|-----------------|------------------------|
|------------------|-----------------|----------5----5--5--5--|
|------------------|-----------------|----------4----4--4--4--|
|------------------|--------4--4--2--|--2----2----------------|
|------------------|--------4--4--2--|--2----2----------------|
|------------------|--------2--2--0--|--0----0----------------|


  C#5     G#sus4/5+     G#5     D#sus4/5+                               
|---------4---4--4-4--|---------4---4--4--4--|--------4------------|
|---------5---5--5-5--|---------4---4--4--4--|--------4------------|
|--6---6--6---6--6-6--|---------4---4--4--4--|--------4------------|
|--6---6--6-----------|--6---6---------------|-6---6------4--4--2--|
|--4---4--4-----------|--6---6---------------|-6---6------4--4--2--|
|---------------------|--4---4---------------|-4---4------2--2--0--|


             Verse1
		 Strings	  Strings + Bridge
             	   4x   D#sus4                   
|-----|-----|----|----||---------------------------|
|-----|-----|----|----||---------------------------|
|-----|-----|*---|---*||*--------------------------|
|--2--|--4--|*---|---*||*--------------------------| 
|--2--|--4--|----|----||---6--6--6--6--6--6--6--6--|
|--0--|--2--|----|----||---4--4--4--4--4--4--4--4--|
				  |-----------------------|	



  A#sus4                  3x  C#5                                              
---------------------------||--------------------------|
---------------------------||--------------------------|
--------------------------*||--------------------------|
--8--8--8--8--8--8--8--8--*||--6--6--6--6--6--6--6--6--|
--6--6--6--6--6--6--6--6---||--4--4--4--4--4--4--4--4--|
---------------------------||--------------------------|
|-----------------------|     |----------------------|


			     Chorus
	                 Piano
                                 E                C#5     G#sus4/5+        
|-------------------|-----------------------|---------4---4--4--4--|
|-------------------|----------5---5--5--5--|---------5---5--5--5--|
|-------------------|*---------4---4--4--4--|--6---6--6---6--6--6--|
|--4---4---4--4--2--|*-2---2----------------|--6---6--6------------|
|--4---4---4--4--2--|--2---2----------------|--4---4--4------------|
|--2---2---2--2--0--|--0---0----------------|----------------------|


   G#5     D#sus4/5+                       	E   3x
|----------4----4--4--4--|-----------4--------------|
|----------4----4--4--4--|-----------4--------------|
|----------4----4--4--4--|-----------4-------------*|
|-6---6------------------|---6----6-------4--4--2--*|
|-6---6------------------|---6----6-------4--4--2---|
|-4---4------------------|---4----4-------2--2--0---|

               Verse2
		   Strings + Bridge
                D#sus4                   
|-----|-----|---------------------------|
|-----|-----|---------------------------|
|-----|-----|*--------------------------|
|--2--|--4--|*--------------------------|   
|--2--|--4--|---6--6--6--6--6--6--6--6--|
|--0--|--2--|---4--4--4--4--4--4--4--4--|
		   |-----------------------|	



  A#sus4                  3x  C#5                                              
---------------------------||--------------------------|
---------------------------||--------------------------|
--------------------------*||--------------------------|
--8--8--8--8--8--8--8--8--*||--6--6--6--6--6--6--6--6--|
--6--6--6--6--6--6--6--6---||--4--4--4--4--4--4--4--4--|
---------------------------||--------------------------|
|-----------------------|     |----------------------|


                      Chorus
			    Piano
                                 E                C#5     G#sus4/5+        
|-------------------|-----------------------|---------4---4--4--4--|
|-------------------|----------5---5--5--5--|---------5---5--5--5--|
|-------------------|*---------4---4--4--4--|--6---6--6---6--6--6--|
|--4---4---4--4--2--|*-2---2----------------|--6---6--6------------|
|--4---4---4--4--2--|--2---2----------------|--4---4--4------------|
|--2---2---2--2--0--|--0---0----------------|----------------------|



[ Tab from: http://www.guitartabs.cc/tabs/h/him/join_me_tab_ver_5.html ]
  G#5     D#sus4/5+                         3x                    
|-------4---4--4--4--|--------4-------------|
|-------4---4--4--4--|--------4-------------|
|-------4---4--4--4--|--------4------------*|
|-6---6--------------|-6---6------4--4--2--*|
|-6---6--------------|-6---6------4--4--2---|
|-4---4--------------|-4---4------2--2--0---|


                                                                          
|-----|-----|-----------4-4-4--4--------|-----4-4-4--4--4----4----|
|-----|-----|-----------4-4-4--4--------|-----4-4-4--4--4----4----|
|-----|-----|-----------4-4-4--4--------|-----4-4-4--4--4----4----|
|--2--|--4--|--6--6--6------------6--6--|--6----------------------|
|--2--|--4--|--6--6--6------------6--6--|--6----------------------|
|--0--|--2--|--4--4--4------------4--4--|--4----------------------|


 Bridge
 Piano     Piano
        8x                                       
|--------||-----|-----|-----|----|-----|-----|
|--------||-----|-----|-----|----|-----|-----|
|*------*||-----|--6--|-----|----|-----|--6--|
|*------*||--2--|--6--|--6--|----|--2--|--6--|
|--------||--2--|--4--|--6--|----|--2--|--4--|
|--------||--0--|--4--|--4--|----|--0--|--4--|


                          Chorus 
(Only voice)	        Piano 2
                     E             E                   
|----|------------------|-------------------------|
|----|------------------|-----------5----5--5--5--|
|----|------------------|*----------4----4--4--4--|
|----|---------4--4--2--|*--2---2-----------------|
|----|---------4--4--2--|---2---2-----------------|
|----|---------2--2--0--|---0---0-----------------|


  C#5     G#sus4/5+     G#5     D#sus4/5+                          3x                         
|---------4---4--4-4--|---------4---4--4--4--|--------4-------------|
|---------5---5--5-5--|---------4---4--4--4--|--------4-------------|
|--6---6--6---6--6-6--|---------4---4--4--4--|--------4------------*|
|--6---6--6-----------|--6---6---------------|-6---6------4--4--2--*|
|--4---4--4-----------|--6---6---------------|-6---6------4--4--2---|
|---------------------|--4---4---------------|-4---4------2--2--0---|


             
|-----|-----|---------|------------------||
|-----|-----|---------|------------------||
|-----|-----|---------|------------------||
|--2--|--4--|--4--4---|------------------||  
|--2--|--4--|--4--4---|------------------||
|--0--|--2--|--2--2---|------------------||



PIANO

                                                                         
E||---------2--4-------|-----------0--------|----------------------|
B||------0-------------|--------4-----------|-----------0----------|
G||*-------------------|-----1--------------|--------3-------------|
D||*--2----------------|--------------------|-----1----------------|
A||--------------------|--4-----------------|----------------------|
E||--------------------|--------------------|--4-------------------|


                   3x                                              
-------------------||--------2--4----------|--------4--6----------|
-------------------||-----0----------------|-----2----------------|
------------------*||----------------------|----------------------|
------------------*||--2-------------------|--4-------------------|
-------------------||----------------------|----------------------|
-------------------||----------------------|----------------------|



STRINGS


                                           
E||-------------------|-------------------||
B||-------------------|-------------------||
G||-------------------|-------------------||
D||-------------------|-------------------||
A||---2----4-----4----|--1----4---4-------||
E||-------------------|-------------------||



BRIDGE (Piano)

  G#m                                        3x   C#m               
|----------------------|---------------------||---0----------------|
|---0--------0----4----|---------------------||---2----------------|
|*--1------------------|--------------------*||---1----------------|
|*--1------------------|--1-----------------*||---2----------------|
|---2------------------|--1--------1----2----||---4----------------|
|---4------------------|--2------------------||--------------------|


  F#                 
|--2--2-------------||
|--2--2-------------||
|--3--3-------------||
|--4--4-------------||
|--4--4-------------||
|--2--2-------------||



PIANO 2

                                                                     
|--------2--4--------|-----------0----------|----------------------|
|-----0--------------|--------4-------------|-----------0----------|
|*-------------------|-----1----------------|--------3-------------|
|*--2----------------|----------------------|-----1----------------|
|--------------------|--4-------------------|----------------------|
|--------------------|----------------------|--4-------------------|



                  3x                                              
|-----------------||--------2--4----------|--------4--6----------|
|--------0--2-----||-----0----------------|-----2----------------|
|-----3----------*||----------------------|----------------------|
|----------------*||--2-------------------|--4-------------------|
|--1--------------||----------------------|----------------------|
|-----------------||----------------------|----------------------|

                                                                      
|-----------|----------|--4----6--|--8------||
|-----------|----1--4--|----------|---------||
|-----------|-1--------|----------|---------||
|--------1--|----------|----------|---------||
|-----3-----|----------|----------|---------||
|--4--------|----------|----------|---------||
Comments