Him - Join Me Chords & Tabs

 

Join Me Chords & Tabs

Him Chords & Tabs

Version: 3 Type: Tab 0 ratings
1 star 2 stars 3 stars 4 stars 5 stars
comments

Join Me Tab

   
E------------14-16--------11-12------6-7-------
B----------------------------------------------
G---------16-----------13----------8-----------  ...
D------14-----------11-----------6-------------
A----------------------------------------------
E----------------------------------------------


E------------14-16--------16-18--------
B--------------------------------------
G---------16-----------18--------------
D------14-----------16-----------------
A--------------------------------------
E--------------------------------------



CHORDS:
=======
[ Tab from: http://www.guitartabs.cc/tabs/h/him/join_me_tab_ver_3.html ]
      G#m    F#    E    C#m    F#5   D#5   C#5   F#5
E------4-----2-----0-----4-----------------------------------
B------4-----2-----0-----5-----------------------------------
G------4-----3-----1-----6------------8-----6----------------
D------6-----4-----2-----6------6-----8-----6-----4----------
A------6-----4-----2-----4------6-----6-----4-----4----------
E------4-----2-----0-----4------4-----------------2----------



INTRO/CHORUS:
=============

F#   E   C#m   G#m  ...  F#   E   F#


VERSE:  
======

>>> palm muted

F#5   D#5   F#5   D#5   F#5   D#5   C#5   F#5  ...



INTERLUDE:
==========

E   C#m   G#m   E   C#m




Comments