Him - Join Me Chords & Tabs

 

Join Me Chords & Tabs

Him Chords & Tabs

Version: 1 Type: Bass Tab 0 ratings
1 star 2 stars 3 stars 4 stars 5 stars
comments

Join Me Bass Tab

Him  Join me
Tabbed by: Marcos Prieto  
any corrections or comments to: mpsfd@mixmail.com

Notation legend:
 
  ~ = let ring
  / = slide down
  \ = slide up

Intro:

G |-------------------------------------------------------------------|
D |-------------------------------------------------------------------|
A |------------------4--4-4-4-4-----6-6-6-6-----6---------------------|
E |-2-2-1-0--0-0-0-2------------2/4---------2/4---2-2-1-0~~-------2~~-|

Verse 1:

G |-------------------------------------------------------------------------|
D |-------------------------------------------------------------------------|
A |----------66666666----------66666666----------66666666-44444444----------| 
E |-44444444----------44444444----------44444444-------------------22222222-|


G |----------------------------------------------------------------------|
D |----------------------------------------------------------------------|
A |----------66666666----------66666666----------66666666-44444444-------|
E |-44444444----------44444444----------44444444--------------------2--2-|

Chorus:
[ Tab from: http://www.guitartabs.cc/tabs/h/him/join_me_btab.html ]
G |-----------------------------------------------|
D |-----------------------------------------------|
A |------------------4--4-4-4-4-----6-6-6-6-----6-| x3
E |-2-2-1-0--0-0-0-2------------2/4---------2/4---|


G |---------------------|
D |---------------------|
A |---------------------|
E |-2-2-1-0~~------2~~--|

Verse 2:

G |---------------------------------------------------------------------|
D |---------------------------------------------------------------------|
A |----------66666666----------66666666----------66666666-44444444------| 
E |-44444444----------44444444----------44444444-------------------2--2-|

Chorus.

End Chorus 2 (quickly):

G |---------------------------------------------------------------------|
D |---------------------------------------------------------------------|
A |---------------------------------------------------------------------|
E |-2/6\2---4-22--44-22--4-22--44-22--4-2-4-2---------------------------|

pre-chorus 3:

G |---------------------------------------------------------------------|
D |---------------------------------------------------------------------|
A |-----------4~~------6~~-----------------4~~--------------------------|
E |-2-0~~-------------------------2-0~~---------------------------------|

Chorus.

End chorus 3:

G |------------------|
D |------------------|
A |------------------|
E |-2222-------------|

Comments