Him - Its All Tears Chords & Tabs

 

Its All Tears Chords & Tabs

Him Chords & Tabs

Version: 1 Type: Tab 0 ratings
1 star 2 stars 3 stars 4 stars 5 stars
comments

Its All Tears Tab

   
Tabbed by:DemonLucifer666
Email:epiphone@streetgangs.com

Tuning: Drop D

Main Chorus/Interlude (Sorry Dont have much time to write this tab)
[ Tab from: http://www.guitartabs.cc/tabs/h/him/its_all_tears_tab.html ]
e|--------------------------------------------------------------------------------|
B|--------------------------------------------------------------------------------|
G|--------------------------------------------------------------------------------|
D|----------------------------------2~~~~~----------------------------------------|
A|--------------------------------------------------------------------------------|
D|-0-0-0-7-8-7-5-7-0-5-3-2-3-0-0-0------------------------------------------------|

Verse

e|-------------|
B|-------------|
G|-------------|
D|5555--3---3--|
A|5555--3---3--|
E|5555--1---3--|I didnt write out the rythm

Thats Pretty Much The Whole SOng,tell me if I missed a part,first tab thx.
| /  slide up
| \  slide down
| h  hammer-on
| p  pull-off
| ~  vibrato
| +  harmonic
| x  Mute note
===============================================================================
Comments