Him - In Love And Lonely Chords & Tabs

 

In Love And Lonely Chords & Tabs

Him Chords & Tabs

Version: 2 Type: Tab 0 ratings
1 star 2 stars 3 stars 4 stars 5 stars
comments

In Love And Lonely Tab

Artist-HIM
Song-In Love and Lonely
Tabber-Giulio

I saw a guitar tab on this site for this song and it was incorrect so I decided to help as much as I can.

Intro
|----------------------------------|
|----------------------------------|
|----------------------------------|
|-11--13-13--13--------------------|
|----------------13-13-------------|
|----------------------------------|

[ Tab from: http://www.guitartabs.cc/tabs/h/him/in_love_and_lonely_tab_ver_2.html ]
Main Riff/Chorus
|----------------------------------|
|----------------------------------|
|----------------------------------|
|----------------------------------|
|-4--6-6--6--------4--6-6--6-------|
|-----------6-6---------------6-6--|

Verse
|-----------------------------------------------------------|
|-----------------------------------------------------------|
|-----------------------------------------------------------|
|---------------------------------"the-last-time.."---------|
|--4~----6~------4~----6~------4~------------8--8-9-8---6~--|
|-----------4~------------4~--------------------------------|


Played with fuzzy and heavy distortion with high mid on a distortion channel or what ever you have

If you don't like this tab then make your own :-)
Comments