Him - In Joy And Sorrow Chords & Tabs

 

In Joy And Sorrow Chords & Tabs

Him Chords & Tabs

Version: 2 Type: Tab 0 ratings
1 star 2 stars 3 stars 4 stars 5 stars
comments

In Joy And Sorrow Tab

   
##################################################################################
# This file is the author's own work and represents their interpretation of the  #
# song. You may only use this file for private study, scholarship, or research.  #
##################################################################################

Artist: HIM
Song: In joy and sorrow
Date: 8/4/2002
From: Elias Stypas  (ilias1892@yahoo.gr)



Main riff
Intro&Verse


E --------------------|-----------0-----------|-------------------------|
B ---------3----------|--------------3---3----|--------------1----------|
G -----0-----0---0----|------0---------0------|---------2------2--------|
D ---2---2-----2------|----0---0--------------|------2----2------2------|
A -3------------------|--2--------------------|---0----------------0----|
E --------------------|-----------------------|-------------------------|

[ Tab from: http://www.guitartabs.cc/tabs/h/him/in_joy_and_sorrow_tab_ver_2.html ]
         
E --------------------|------------------------------|------------0----------|
B -0-------1----------|--------------------3---------|---------------3---3---|
G ---2-------2--------|---------------0------0---0---|-------0---------0-----|
D -----2--------------|-------------2---2------2-----|-----0---0-------------|
A -------0------------|----0-2-3---------------------|---2-------------------|
E --------------------|------------------------------|-----------------------| X2
    
 Play the above chords 2 times and then,when Valo sings "Theres no cure for...
add Dm before Am

                                                        Dm                   Am
E --------------------|-----------0-----------|-----------1-----1--|---------------------|
B ---------3----------|--------------3---3----|-------------2------|-------------1-------|
G -----0-----0---0----|------0---------0------|-------2-------0----|--------2------2-----|
D ---2---2-----2------|----0---0---------0----|-----0---0----------|-----2----2------2---|
A -3------------------|--2--------------------|--0-----------------|--0----------------0-|
E --------------------|-----------------------|--------------------|---------------------|



Here it is!!!!!!

Have fun!
Comments