Him - Heaven Tonight Chords & Tabs

 

Heaven Tonight Chords & Tabs

Him Chords & Tabs

Version: 1 Type: Tab 0 ratings
1 star 2 stars 3 stars 4 stars 5 stars
comments

Heaven Tonight Tab

HIM - Heaven Tonight
Tabbed By: Dylan Givens
EMail: dylangivens@lycos.com
Composed by: HIM
Tabulated by:  Luke “Lazy Sky” Vai  & The Duke  
Info:   |-|	 ->  Muted
	   h	 ->  Hammer on
	   p	 ->  Pull off
     

     KEYBOARD
   (Clean Wah-Wah Guitar)   Verse1 
E||----------------------|------------------|----------------------|
B||----------------------|------------------|----------------------|
G||----------------------|------------------|----------------------|
D||----------------------|------------------|----------------------|
A||--0--0--3--0----------|------------------|--0--0--3--0----------|
E||----------------------|------------------|----------------------|

                                                             
|------------------------|----------------------|------------------|
|------------------------|----------------------|------------------|
|------------------------|----------------------|------------------|
|------------------------|----------------------|------------------|
|------------------------|--------0-------------|------------------|
|------------------------|--1--1-----1----------|------------------|

                                                                     
|----------------------|------------------|--------------------------|
|----------------------|------------------|--------------------------|
|----------------------|------------------|--------------------------|
|----------------------|------------------|--------------------------|
|--------2-------------|------------------|--0--0--3--0--0--0--0--0--|
|--3--3-----3----------|------------------|--------------------------|
                                                     |-------------| 
                                                      
|--------------------------|--------------------------|
|--------------------------|--------------------------|
|--------------------------|--------------------------|
|--------------------------|--------------------------|
|--0--0--0--0--0--0--0--0--|--0--0--3--0--0--0--0--0--|
|--------------------------|--------------------------|
  |----------------------|            |-------------|
                                                      
|--------------------------|--------------------------|
|--------------------------|--------------------------|
|--------------------------|--------------------------|
|--------------------------|--------------------------|
|--0--0--0--0--0--0--0--0--|--------0-----------------|
|--------------------------|--1--1-----1--1--1--1--1--|
  |----------------------|            |-------------| 
                                                      
|--------------------------|--------------------------|
|--------------------------|--------------------------|
|--------------------------|--------------------------|
|--------------------------|--------------------------|
|--------------------------|--------2-----------------|
|--1--1--1--1--1--1--1--1--|--3--3-----3--3--3--3--3--|
  |----------------------|            |-------------|

					 Chorus1
                               RITMIC
					 RIFF	                       
|--------------------------||---------------------------|
|--------------------------||---------------------------|
|--------------------------||*--------------------------|
|--------------------------||*--------------------------|
|--------------------------||---------------------------|
|--3--3--3--3--3--3--3--3--||---1--1--1--1--1--1--1--1--|
  |----------------------|     |----------------------|
                                                      
|--------------------------|--------------------------|
|--------------------------|--------------------------|
|--------------------------|--------------------------|
|--------------------------|--------------------------|
|--------------------------|--3--3--3--3--3--3--3--3--|
|--1--1--1--1--1--1--1--1--|--------------------------|
  |-------------------------------------------------|
                             
|---------------------------||
|---------------------------||
|--------------------------*||
|--------------------------*||
|---------------------------||
|--3--3--3--3--3--3--3--3---||    
  |----------------------|

                          Verse2 
|----------------------|------------------|----------------------|
|----------------------|------------------|----------------------|
|----------------------|------------------|----------------------|
|----------------------|------------------|----------------------|
|--0--0--3--0----------|------------------|--0--0--3--0----------|
|----------------------|------------------|----------------------|

                                                             
|----------------------|----------------------|------------------|
|----------------------|----------------------|------------------|
|----------------------|----------------------|------------------|
|----------------------|----------------------|------------------|
|----------------------|--------0-------------|------------------|
|----------------------|--1--1-----1----------|------------------|

                                                                     
|----------------------|------------------|--------------------------|
|----------------------|------------------|--------------------------|
|----------------------|------------------|--------------------------|
|----------------------|------------------|--------------------------|
|--------2-------------|------------------|--0--0--3--0--0--0--0--0--|
|--3--3-----3----------|------------------|--------------------------|
                                                     |-------------|
                                                      
|--------------------------|--------------------------|
|--------------------------|--------------------------|
|--------------------------|--------------------------|
|--------------------------|--------------------------|
|--0--0--0--0--0--0--0--0--|--0--0--3--0--0--0--0--0--|
|--------------------------|--------------------------|
  |----------------------|            |-------------|
                                                      
|--------------------------|--------------------------|
|--------------------------|--------------------------|
|--------------------------|--------------------------|
|--------------------------|--------------------------|
|--0--0--0--0--0--0--0--0--|--------0-----------------|
|--------------------------|--1--1-----1--1--1--1--1--|
  |----------------------|            |-------------|
                                                      
|--------------------------|--------------------------|
|--------------------------|--------------------------|
|--------------------------|--------------------------|
|--------------------------|--------------------------|
|--------------------------|--------2-----------------|
|--1--1--1--1--1--1--1--1--|--3--3-----3--3--3--3--3--|
  |----------------------|            |-------------|
                              
                               Chorus2                          
|--------------------------||---------------------------|
|--------------------------||---------------------------|
|--------------------------||*--------------------------|
|--------------------------||*--------------------------|
|--------------------------||---------------------------|
|--3--3--3--3--3--3--3--3--||---1--1--1--1--1--1--1--1--|
  |----------------------|     |----------------------|
                                                      
|--------------------------|--------------------------|
|--------------------------|--------------------------|
|--------------------------|--------------------------|
|--------------------------|--------------------------|
|--------------------------|--3--3--3--3--3--3--3--3--|
|--1--1--1--1--1--1--1--1--|--------------------------|
  |-------------------------------------------------|
                           
                           2x                           
|---------------------------||--------------------------|
|---------------------------||--------------------------|
|--------------------------*||--------------------------|
|--------------------------*||--------------------------|
|---------------------------||--------------------------|
|--3--3--3--3--3--3--3--3---||--1--1--1--1--1--1--1--1--|
  |---------------------------------------------------|
                                                      
|--------------------------|--------------------------|
|--------------------------|--------------------------|
|--------------------------|--------------------------|
|--------------------------|--------------------------|
|--------------------------|--------------------------|
|--1--1--1--1--1--1--1--1--|--3--3--3--3--3--3--3--3--|
  |-------------------------------------------------|
                            
|--------------------------||
|--------------------------||
|--------------------------||
|--------------------------||
|--------------------------||
|--3--3--3--3--3--3--3--3--||
  |----------------------|

   PIANO
|----------------------|------------------|----------------------|
|----------------------|------------------|----------------------|
|----------------------|------------------|----------------------|
|----------------------|------------------|----------------------|
|--0--0--3--0----------|------------------|--0--0--3--0----------|
|----------------------|------------------|----------------------|
[ Tab from: http://www.guitartabs.cc/tabs/h/him/heaven_tonight_tab.html ]
                                                             
|----------------------|----------------------|------------------|
|----------------------|----------------------|------------------|
|----------------------|----------------------|------------------|
|----------------------|----------------------|------------------|
|----------------------|--0--0--3--0----------|------------------|
|----------------------|----------------------|------------------|

                                                                     
|----------------------|------------------|--------------------------|
|----------------------|------------------|--------------------------|
|----------------------|------------------|--------------------------|
|----------------------|------------------|--------------------------|
|--0--0--3--0----------|------------------|--0--0--3--0--0--0--0--0--|
|----------------------|------------------|--------------------------|
                                                     |-------------|          
                                                      
|--------------------------|--------------------------|
|--------------------------|--------------------------|
|--------------------------|--------------------------|
|--------------------------|--------------------------|
|--0--0--0--0--0--0--0--0--|--0--0--3--0--0--0--0--0--|
|--------------------------|--------------------------|
  |----------------------|            |-------------|
                                                      
|--------------------------|--------------------------|
|--------------------------|--------------------------|
|--------------------------|--------------------------|
|--------------------------|--------------------------|
|--0--0--0--0--0--0--0--0--|--0--0--3--0--0--0--0--0--|
|--------------------------|--------------------------|
  |----------------------|            |-------------|
                                                      
|--------------------------|--------------------------|
|--------------------------|--------------------------|
|--------------------------|--------------------------|
|--------------------------|--------------------------|
|--0--0--0--0--0--0--0--0--|--------------------------|
|--------------------------|--3--3--3--3--3--3--3--3--|
  |-------------------------------------------------|
                               
                               Chorus End                        
|--------------------------||---------------------------|
|--------------------------||---------------------------|
|--------------------------||*--------------------------|
|--------------------------||*--------------------------|
|--------------------------||---------------------------|
|--3--3--3--3--3--3--3--3--||---1--1--1--1--1--1--1--1--|
  |---------------------------------------------------|
                                                      
|--------------------------|--------------------------|
|--------------------------|--------------------------|
|--------------------------|--------------------------|
|--------------------------|--------------------------|
|--------------------------|--3--3--3--3--3--3--3--3--|
|--1--1--1--1--1--1--1--1--|--------------------------|
  |-------------------------------------------------|

                           7x
|---------------------------||
|---------------------------||
|--------------------------*||   Ad libitium...
|--------------------------*||
|---------------------------||
|--3--3--3--3--3--3--3--3---||
  |----------------------|RITMIC
(Distortion Guitar)

E||--------------------|------------------|-------------------|
B||--------------------|------------------|-------------------|
G||*-------------------|------------------|--5----------------|
D||*--3----------------|------------------|--5----------------|
A||---3----------------|------------------|--3----------------|
E||---1----------------|------------------|-------------------|

                                          15x                     
|--------------------||--------------------||--------------------|
|--------------------||--------------------||--------------------|
|-------------------*||*------------------*||*-------------------|
|--5----------------*||*------------------*||*--3----------------|
|--5-----------------||--------------------||---3----------------|
|--3-----------------||--------------------||---1----------------|

                                                           2x
|------------------|-------------------|--------------------||
|------------------|-------------------|--------------------||
|------------------|--5----------------|-------------------*||
|------------------|--5----------------|--5----------------*||
|------------------|--3----------------|--5-----------------||
|------------------|-------------------|--3-----------------||

                                                                              
|-------------------|------------------|--------------------|----------------|
|-------------------|------------------|--------------------|----------------|
|-------------------|------------------|--------------------|----------------|
|--3----------------|------------------|--5-----------------|----------------|
|--3----------------|------------------|--5-----------------|----------------|
|--1----------------|------------------|--3-----------------|----------------|

                   13x                                       
|--------------------||-------------------|------------------|
|--------------------||-------------------|------------------|
|*------------------*||-------------------|------------------|
|*------------------*||--5----------------|------------------|
|--------------------||--5----------------|------------------|
|--------------------||--3----------------|------------------|

                                                             
|--------------------|-------------------|-------------------|
|--------------------|-------------------|-------------------|
|*-------------------|-------------------|--5----------------|
|*--3----------------|-------------------|--5----------------|
|---3----------------|-------------------|--3----------------|
|---1----------------|-------------------|-------------------|

                    2x    SOLO
|--------------------||------------------|-------------------|
|--------------------||------------------|-------------------|
|-------------------*||*-----------------|-------------------|
|--5----------------*||*--3--------------|-------------------|
|--5-----------------||---3--------------|-------------------|
|--3-----------------||---1--------------|-------------------|

                                         4x
|--------------------|--------------------||
|--------------------|--------------------||
|--5-----------------|-------------------*||  Ad libitium...
|--5-----------------|--5----------------*||
|--3-----------------|--5-----------------||
|--------------------|--3-----------------||RIFF
(Overdriven Guitar)

E||-------------------||----------------------|---------------------------||
B||----------------5--||---5--6--5------------|--5h-6p-5--8--8--6--5--5---||
G||-------------------||*---------------------|--------------------------*||
D||-------------------||*---------------------|--------------------------*||
A||-------------------||----------------------|---------------------------||
E||-------------------||----------------------|---------------------------||

                                                                    14x
|---------------------|-------------------------||--------------------||
|--5--6--5------------|--5h-6p-5--8--8--6--5----||--------------------||
|---------------------|-------------------------||*------------------*||
|---------------------|-------------------------||*------------------*||
|---------------------|-------------------------||--------------------||
|---------------------|-------------------------||--------------------||

                                                                       6x
|-------------------||----------------------|---------------------------||
|----------------5--||---5--6--5------------|--5h-6p-5--8--8--6--5--5---||
|-------------------||*---------------------|--------------------------*||
|-------------------||*---------------------|--------------------------*||
|-------------------||----------------------|---------------------------||
|-------------------||----------------------|---------------------------||

                                                                    14x
|---------------------|-------------------------||--------------------||
|--5--6--5------------|--5h-6p-5--8--8--6--5----||--------------------||
|---------------------|-------------------------||*------------------*||
|---------------------|-------------------------||*------------------*||
|---------------------|-------------------------||--------------------||
|---------------------|-------------------------||--------------------||

                                                                      15x
|-------------------||----------------------|---------------------------||
|----------------5--||---5--6--5------------|--5h-6p-5--8--8--6--5--5---||
|-------------------||*---------------------|--------------------------*||   Ad
|-------------------||*---------------------|--------------------------*|| libitium
|-------------------||----------------------|---------------------------||   ...
|-------------------||----------------------|---------------------------||SOLO
(Overdriven Wah-Wah Guitar)

E||---------------------------|--------------------------|
B||---------------------------|--------------------------|
G||*--2--2--2--2--2--2--2--2--|--4--4--4--4--5--5--5--5--|
D||*--------------------------|--------------------------|
A||---------------------------|--------------------------|
E||---------------------------|--------------------------|

                                                      4x
|--------------------------|---------------------------||
|--------------------------|---------------------------||
|--0--0--0--0--0--0--0--0--|--0--0--0--0--0--0--0--0--*||  Ad libitium...
|--------------------------|--------------------------*||
|--------------------------|---------------------------||
|--------------------------|---------------------------||
Comments