Him - Heartache Every Moment Chords & Tabs

 

Heartache Every Moment Chords & Tabs

Him Chords & Tabs

Version: 1 Type: Tab 0 ratings
1 star 2 stars 3 stars 4 stars 5 stars
comments

Heartache Every Moment Tab

   
Artist: -H-I-M-
Song: Heartache Every Moment
Album: Deep Shadows and the Brilliant Highlights
Tuning: Standard

Intro
E|---------------------------------------------|
B|---------------------------------------------|
G|----------------3-----6~-3~---x3~------------|
D|-3~-------------3-3---6~-3~--3x3~------------|
A|-3~-------------1-3---4~-1~--3x1~------------|
E|-1~---------------1----------1---------------|

E|---------------------------------------------|
B|---------------------------------------------|
G|-6~-3~--x3~---6~-3~--x3~--6-3---3~-----------|
D|-6~-3~-3x3~---6~-3~-3x3~--6-1-3-3~-----------|
A|-4~-1~-3x1~---4~-1~-3x1~--4-1-3-1~-----------|
E|-------1------------1---------1--------------|

verse 
(no guitar 1st half of the first verse)
E|-----------------|    |------------------------------|
B|-----------------|    |------------------------------|
G|-----666333333333|    |-----66633333--6-3---3~---3---|
D|-3333666333333333|(x2)|-333366633333--6-3-3-3~---3-3-|
A|-3333444111111111|    |-333344411111--4-1-3-1~---1-3-|
E|-1111------------|    |-1111--------------1--------1-|
PM................       ............  . . . .
[ Tab from: http://www.guitartabs.cc/tabs/h/him/heartache_every_moment_tab.html ]
chorus
E|-----------------------------------------------|
B|-----------------------------------------------|
G|-6~-3~--x3~---6~-3~--x3~--6~-3~--x3~--6-3---3~-|
D|-6~-3~-3x3~---6~-3~-3x3~--6~-1~-3x3~--6-3-3-3~-|
A|-4~-1~-3x1~---4~-1~-3x1~--4~-1~-3x1~--4-1-3-1~-|
E|-------1------------1-----------1---------1----|

solo (the Chorus backs this)
E|-8~~-6--4--3--4~---8~~-6--4--3--4~---8~~-6--4--3--4~---8--6h--4--6h~|
B|--------------------------------------------------------------------|
G|--------------------------------------------------------------------|
D|--------------------------------------------------------------------|
A|--------------------------------------------------------------------|
E|--------------------------------------------------------------------|

Bridge:
E|-------------------------------------|
B|-------------------------------------|
G|-66666666-33333333----------33333333-|
D|-66666666-33333333-33333333-33333333-|
A|-44444444-11111111-33333333-11111111-|
E|-------------------11111111----------|

E|-3333333333333333-5555555555555555-777777777777777-9999999999999999-|
B|-4444444444444444-6666666666666666-888888888888888-1010101010101010-|
G|-3333333333333333-5555555555555555-777777777777777-9999999999999999-|
D|--------------------------------------------------------------------|
A|--------------------------------------------------------------------|
E|--------------------------------------------------------------------|

Song Formation:
Intro
Verse
Chorus
Verse
Chorus
Solo
Bridge
Chorus

AIM: Misfits3388
Comments