Him - Gone With The Sin Chords & Tabs

 

Gone With The Sin Chords & Tabs

Him Chords & Tabs

Version: 5 Type: Tab 0 ratings
1 star 2 stars 3 stars 4 stars 5 stars
comments

Gone With The Sin Tab

   
I've never posted any tabs because I never really felt I needed to tell other people but 
felt this should be an option to all HIM guitar solo fans.

The other poster of the solo is fine but I got tired of jumping around. So, I rewrote 
tabs so it tends to all stay in one area. So your poor wrist can take a bit of a rest.

That and my thoughts are if Linde was playing he'd probably play it more in this style. 
mean he keeps his eyes closed you'd have to imagine he wants things as close as possible 
on stage.)

Gone With the Sin - Solo
[ Tab from: http://www.guitartabs.cc/tabs/h/him/gone_with_the_sin_tab_ver_5.html ]
e|-------------------------------|
B|-------------------------------|
G|--9-7--------------------------|
D|7----10-9--9-10-7-10-9-7--7----|
A|---------10-------------10--7--|
E|-------------------------------|

e|----------------------------------------|
B|----------------------------------------|
G|--9-7--7-----7--------------------------|
D|7----10--9-10--9-7-10-9-7---------------|
A|--------------------------10-8-7-5------|
E|-----------------------------------8-7-5|

e|--------------------------------|
B|--------------------------------|
G|--------------------------------|
D|--------------------------------|
A|-----------7-------------------7|
E|7-8-7-8-10--10-8-7-5-7-8-7-8-10-|

Alright well I'm pretty sure thats right. I did have to re-write it because I'm an idiot 
pressed cntl V at 1:51 am and its 2:17 am now...so, if somethings wrong with it you can 
me at antiflaghippie@hotmail.com but I don't think anything is.

C
Comments