Him - Gone With The Sin Chords & Tabs

 

Gone With The Sin Chords & Tabs

Him Chords & Tabs

Version: 1 Type: Tab 0 ratings
1 star 2 stars 3 stars 4 stars 5 stars
comments

Gone With The Sin Tab

   
#----------------------------------PLEASE NOTE---------------------------------#
#This file is the author's own work and represents their interpretation of the #
#song. You may only use this file for private study, scholarship, or research. #
#------------------------------------------------------------------------------#

Artist    : HIM
Song      : gone with the sin
Album     : Razorblade Romance

transcribed by -=~°!cRoWSiDeR!°~=- Crowsider@gmx.de.
plz don't blame me cause its the first song i've tabbed

chords

[Verse 1+2]
Am  G  F

[Chorus]
Am  G  F  C  G


For this solo ya need a Tremolo 

s = Slide
h = hammering
td = Tremolo down
e|-------------------------------------------------|
b|-------------------------------------------------|
g|--2-s8--6--5-----------5--6--5-------------------|
d|--------------8--5--8-----------9--8--6--5--6--2-|
a|-------------------------------------------------|
e|-------------------------------------------------|
[ Tab from: http://www.guitartabs.cc/tabs/h/him/gone_with_the_sin_tab.html ]
e|-------------------------------------------------|
b|-------------------------------------------------|
g|--2-s8--6--5-h6-----5--6--8--6--5--4--2--0-------|
d|-----------------8--------------------------3--2-|
a|-------------------------------------------------|
e|-------------------------------------------------|

e|---------------------------------------------------------------------------------|
b|---------------------------------------------------------------------------------|
g|---------------------------------------------------------------------------------|
d|0----------------------0--2--0---------------------------------------------------|
a|--3--2--0--2--3--2--3-----------3--2--0-----------------0--2--3--2-----2--3--2h3-|
e|-----------------------------------------2--1--0--td-2--------------3------------|

[Chorus & fade out]

chords:

    Am   G   F   C
e:--0----3---1---0-----|
B:--1----0---1---1-----|
G:--2----0---2---0-----|
D:--2----0---3---2-----|
A:--0----2---3---3-----|
E:-------3-------------|
Comments