Him - Funeral Of Hearts Chords & Tabs

 

Funeral Of Hearts Chords & Tabs

Him Chords & Tabs

Version: 4 Type: Tab 0 ratings
1 star 2 stars 3 stars 4 stars 5 stars
comments

Funeral Of Hearts Tab

   
-----------------------------------------------------------------------------
			     Funeral of Hearts - HIM
-----------------------------------------------------------------------------

Tabbed by: cky_chick8080
Email: baker_afton28@msn.com
[ Tab from: http://www.guitartabs.cc/tabs/h/him/funeral_of_hearts_tab_ver_4.html ]
                   a                    E/G#                  D/F#
e|---------------------------------------------------------------------------|
B|---------------------------------------------------------------------------|
G|---------------------------------------------------------------------------|
D|----------------2-2-2-2-2-2-2-2----------------------------0-0-0-0-0-0-0-0-|
A|----------------0-0-0-0-0-0-0-0-------2-2-2-2-2-2-2-2------0-0-0-0-0-0-0-0-|
E|---2---4------------------------------4-4-4-4-4-4-4-4------2-2-2-2-2-2-2-2-|
  love's the         Funeral of             Hearts


    a            E
e|------------------------------||
B|------------------------------||
G|-----------------------------.||
D|---2-2-2-2-------------------.||
A|---0-0-0-0------2-2-2-2-------||
E|----------------0-0-0-0-------||
                              REPEAT

This is my first tab to submit, so sorry if its wrong..... thanks!
Comments