Him - Funeral Of Hearts Chords & Tabs

 

Funeral Of Hearts Chords & Tabs

Him Chords & Tabs

Version: 3 Type: Tab 0 ratings
1 star 2 stars 3 stars 4 stars 5 stars
comments

Funeral Of Hearts Tab

E------------------------------------------9--------------------------------|
A-------7-9-------7------------7-9-------7----------------------------------|
D-7-6-7-----6-6-7---9-11-7-6-7-----6-6-7------------------------------------|
G-------------------------------------------------------9----------9--------|
b--------------------------------------------7-9-10-9-7---7-9-9-10---12-14--|
e---------------------------------------------------------------------------|

E------------------------------|
A------------------------------|
D-----------------11-----------|
G---9-11--------9--------------|
b-9------9-9-10----------------|
e------------------------------|
[ Tab from: http://www.guitartabs.cc/tabs/h/him/funeral_of_hearts_tab_ver_3.html ]
Comments