Him - Funeral Of Hearts Acoustic Chords & Tabs

 

Funeral Of Hearts Acoustic Chords & Tabs

Him Chords & Tabs

Version: 2 Type: Chords

Funeral Of Hearts Acoustic Chords

   
HIM - The Funeral Of Hearts
Tabbed by Shiftas. Email: MYBAND@one.lt

Tabbed from accoustic live video.if you have any suggestions or corrections or
smthng mail me.sounds pretty good for me.

CHORDS USED

   Em   D   C   Bm  C/B  G  F#m C#m  A+   A    E+   E    D7
e|--0---2---0----2---0---3---2---4---0h5--0----0h4--0----2--|
B|--0---3---1----3---1---0---2---5---5----2h0--5----0----1--|
G|--0---2---0----4---0---0---2---6---6----2----4----1----2--|
D|--2---0---2----4---2---0---4---6---7----2----6----2----0--|
A|--2---0---3----2---2---2---4---4---x----0---------2----0--|
E|--0---0---0----2---0---3---2---4---x----0---------0----0--|

   C+    G+   D+
e|-0----------0h2---|
B|-1----------3-----|
G|-0-----0----2-----|
D|-2p0---0----0-----|
A|-3-----0h2--0-----|
E|-0-----3----0-----|

intro:
                 C/B
e|--------------------0-------|
B|--------------------1-------|
G|---------0----------0-------|
D|-------2------2-----2-------|
A|-----2--------------2-------|
E|---0----------------0-------|

Verse 1:
Em          D            G
She was the sun shining upon
     C            Em        D7     Em    C/B
the tomb of your hopes and dreams so frail,
Em          D            G
He was the moon painting you
          C       Em    D7       C+   D+
with its glow so vulnerable and pale.
[ Tab from: http://www.guitartabs.cc/tabs/h/him/funeral_of_hearts_acoustic_crd_ver_2.html ]
Chorus:
           Em          Bm
Love's the Funeral Of Hearts
       C+           G+ D+
and an ode for cruelty,
      Em          Bm
Where angels cry blood
               C+   G+  D+
on flowers of evil in bloom,
     Em            Bm
The Funeral Of Hearts
        C+       G+  D+
and a pleace for mercy,
     Em        Bm
when Love is a gun
     C            G+  D+
separating me from you.


Intro.


Verse 2:
Em          D            G
She was the wind carrying in
           C          Em              D7            Em   C/B
all the troubles and fears you've for years tried to forget,
Em           D                 G
He was the fire restless and wild
     C   Em         D7            C+    D+
and you were like a moth to that flame.


Chorus.


Bridge:
C            D             Cdim
The heretic seal beyond divine
        Em       D         C
Pray to God whos deaf and blind
          D                   Cdim
The last rights for souls on fire
              Em          D        C   D   Em
Three little words and a question why


Chorus:
           F#m         C#m
Love's the Funeral Of Hearts
       D            A+ E+
and an ode for cruelty,
      F#m          C#m
Where angels cry blood
                D       A E
on flowers of evil in bloom,
     F#m            C#m
The Funeral Of Hearts
        D        A+ E+
and a plea for mercy,
     F#m        C#m
when Love is a gun
     D              A E
separating me from you.

                 C/B
e|--------------------2-------|
B|--------------------3-------|
G|---------2----------2-------|
D|-------4------4-----4-------|
A|-----4--------------4-------|
E|---2----------------2-------|