Him - Dont Fear The Reaper Chords & Tabs

 

Dont Fear The Reaper Chords & Tabs

Him Chords & Tabs

Version: 3 Type: Tab 0 ratings
1 star 2 stars 3 stars 4 stars 5 stars
comments

Dont Fear The Reaper Tab

   
----------------------------------------------------------------------------
	(Don't Fear)The Reaper(ACOUSTIC SET!!) - HIM
----------------------------------------------------------------------------
Tabbed by:Gano Perez Jr    Email:gano22perez@yahoo.com   

Any Questions, comments or adjustments may be mailed to the above address and
are welcome any time, but don't expect a speedy reply as I only check my mail
weekly, if even that. I'll sound like all the Idiots that state "This is my
very first tab" which honest to God this IS my very first tab, so don't get
to technical out there!

Tuning:STANDARD (EADGBE) with a Jasmine ACOUSTIC by TAKAMINE (Just kidding!)
ENJOY THE SHOW!

INTRO:PLAY THIS (4X)
e|------------------------------------------------------------------------|
B|-------4-------------2---------------0-------------2--------------------|
G|------------------------------------------------------------------------|
D|-----6----6-------4-----4---------4-----4-------4-----4-----------------|
A|------------------------------------------------------------------------|
E|---4-------------2-------------0-------------2--------------------------|
[ Tab from: http://www.guitartabs.cc/tabs/h/him/dont_fear_the_reaper_tab_ver_3.html ]
Verse I
e|------------------------------------------------------------------------|
B|---4--------2-------0--------2------4-------2------0--------2-----------|
G|------------------------------------------------------------------------|
D|--6--6-----4--4----4--4----4---4---6--6----4--4---4--4----4----4--------|
A|------------------------------------------------------------------------|
E|-4--------2-------0-------2------4-------2------0------2----------------|
   All.....   our    times..have come.........
   Here.....  but    now..they've gone........
 
e|------------------------------------------------------------------------|
B|---0------2-----4------2----0-------2-------4-------2-------0-------2---|
G|------------------------------------------------------------------------|
D|--4--4--4--4--6--6---4--4--4--4---4---4---6---6---4---4---4---4---4---4-|
A|------------------------------------------------------------------------|
E|-0----2-----4------2-----0------2-------4-------2-------0-------2-------|
Seasons.Fear..Reaper, nor..wind...sun or..rain                   So come on
e|------------------------------------------------------------------------|
B|---4--------2-------0--------2------4-------2------0--------2-----------|
G|------------------------------------------------------------------------|
D|--6--6-----4--4----4--4----4---4---6--6----4--4---4--4----4----4--------|
A|------------------------------------------------------------------------|
E|-4--------2-------0-------2------4-------2------0------2----------------|
   baby.......             Take my hand,           We'll be able to 
e|------------------------------------------------------------------------|
B|---4------2----0-------2-------4-------2-------0-------2----------------|
G|------------------------------------------------------------------------|
D|--6--6---4--4--4--4---4---4---6---6---4---4---4---4---4---4-------------|
A|------------------------------------------------------------------------|
E|-4------2-----0------2-------4-------2-------0-------2------------------|
   fly..........Baby, I'm your man..............Baby   I'm your    
                                                              
e|------------------------------------------------------------------------|
B|-----4-------2-------0-------2-------4-------2-------0-------2----------|
G|------------------------------------------------------------------------|
D|---6---6---4---4---4--4---4---4---6---6---4---4---4---4---4---4---------|
A|------------------------------------------------------------------------|
E|-4-------2-------0------2-------4-------2-------0-------2---------------|
   man......        
   Ahhh...    Na..No..,,  Na......No

e|------------------------------------------------------------------------|
B|-----4-------2-------0-------2-------4-------2-------0-------2----------|
G|------------------------------------------------------------------------|
D|---6---6---4---4---4--4---4---4---6---6---4---4---4---4---4---4---------|
A|------------------------------------------------------------------------|
E|-4-------2-------0------2-------4-------2-------0-------2---------------|
Ahhh...    Na..No..,,  Na......Na
SILENCE
e|------------------------------------------------------------------------|
B|-----4-------2-------0-------2-------4-------2-------0-------2----------|
G|------------------------------------------------------------------------|
D|---6---6---4---4---4--4---4---4---6---6---4---4---4---4---4---4---------|
A|------------------------------------------------------------------------|
E|-4-------2-------0------2-------4-------2-------0-------2---------------|
Get the timing of the picking and sing the right words at the right time
Play verse II just like I showed you how to play Verse I with, of course the
different words of verse 2. Variate the verses and chorus as played in the
acoustic version.Below are the Lyrics to follow as played.

Again any comments or corrections are welcome just email me:
gano22perez@yahoo.com
Well,as the rabbit says, "That's all folks"!For now.
| /  slide up
| \  slide down
| h  hammer-on
| p  pull-off
| ~  vibrato
| +  harmonic
| x  Mute note
===============================================================================
Comments