Him - Death Is In Love With Us Chords & Tabs

 

Death Is In Love With Us Chords & Tabs

Him Chords & Tabs

Version: 1 Type: Tab 0 ratings
1 star 2 stars 3 stars 4 stars 5 stars
comments

Death Is In Love With Us Tab

   
#----------------------------------PLEASE NOTE---------------------------------#
#This file is the author's own work and represents their interpretation of the #
#song. You may only use this file for private study, scholarship, or research. #
#------------------------------------------------------------------------------##

                            DEATH IS IN LOVE WITH US
                              As recorded by H.I.M.
                    (From the 2000 Album RAZORBLADE ROMANCE )

Words by Ville Valo

Music by H.I.M.
Arranged by H.I.M.


Gtr I (B E A D F# B) - 'Untitled'
Gtr II (E A D G B E) - 'Untitled'
Gtr III (E A D G B E) - 'Untitled'

 Intro
  Q=142
  N.C.             B5                 C#5D5                    E5 F#5
 4/4
  Gtr I
  E   E +Q    Q  E  E    +Q   Q.    E  E  E    +E  E E  E E  E  E  E
|---------------------|---------------------|------------------------|
|---------------------|---------------------|------------------------|
|---------------------|---------------------|------------------------|
|-------------------2-|--(2)--2-----2--4--5-|--(5)-5-5--5-5--5--7--9-|
|-----2-(2)s=12s=x--2-|--(2)--2-----2--4--5-|--(5)-5-5--5-5--5--7--9-|
|-----2-(2)s=12s=x--0-|--(0)--0-----0--2--3-|--(3)-3-3--3-3--3--5--7-|
|
| Gtr III
| H..               E    +Q   Q.    E  E  E    +Q    Q.      E  E  E
|------------------10-|-(10)--9----------10-|-(10)---9------------10-|
|---------------------|------------12-10----|---------------12-10----|
|---------------------|---------------------|------------------------|
|---------------------|---------------------|------------------------|
|---------------------|---------------------|------------------------|
|---------------------|---------------------|------------------------|
|
| Gtr II
| H..               E    +Q   Q.    E  E  E    +Q    Q.      E  E  E
|---------------------|---------------------|------------------------|
|---------------------|---------------------|------------------------|
|-------------------7-|--(7)--6-----------7-|--(7)---6-------------7-|
|---------------------|-------------9--7----|----------------9--7----|
|---------------------|---------------------|------------------------|
|---------------------|---------------------|------------------------|


               E5F#E5
   +E  E E E E E E E   +E   E E E E  E  E E
|--------------------|----------------------|
|--------------------|----------------------|
|--------------------|----------------------|
|--(9)-9-9-9-9-7-9-7-|-(7)--7-7-7-7--7--7-7-|
|--(9)-9-9-9-9-7-9-7-|-(7)--7-7-7-7--7--7-7-|
|--(7)-7-7-7-7-5-7-5-|-(5)--5-5-5-5--5--5-5-|
|
|  +E  Q   Q   Q   E   +E   Q   Q    Q.
|-(10)-9---7---5-----|----------------------|
|------------------9-|-(9)-10---7---10------|
|--------------------|----------------------|
|--------------------|----------------------|
|--------------------|----------------------|
|--------------------|----------------------|
|
|  +E  Q   Q   Q   E   +E   Q   Q    Q.
|--------------------|----------------------|
|--------------------|----------------------|
|--(7)-6-------------|----------------------|
|----------9---7---6-|-(6)--7--------7------|
|--------------------|----------9-----------|
|--------------------|----------------------|


  D5              E5           N.C. F#5
  W                H       +E  E  E E
|---------------|----------------------|
|---------------|----------------------|
|---------------|----------------------|
|-5-------------|--7-------(7)------9--|
|-5-------------|--7-------(7)------9--|
|-3-------------|--5-------(5)-7h10-7--|
|
| E Q  Q   Q  E   +E  Q  Q     E  E E
|-7-9--7--------|----------------------|
|---------10--9-|-(9)-7--------7-10-7--|
|---------------|--------9-------------|
|---------------|----------------------|
|---------------|----------------------|
|---------------|----------------------|
|
| E Q  Q   Q  E   +E  Q  Q     E  E E
|---------------|----------------------|
|---------------|----------------------|
|---6-----------|----------------------|
|-9----9---7--6-|-(6)-------------7----|
|---------------|-----9--7-----9----9--|
|---------------|----------------------|


   Verse 1, 2
                        E5
        PM---------------------------------
    +E  E E E E E E E    E  E E E E E E E
||--------------------|-------------------|
||o-------------------|-------------------|
||--------------------|-------------------|
||--(9)-9-9-9-9-9-9-9-|--7--7-7-7-7-7-7-7-|
||o-(9)-9-9-9-9-9-9-9-|--7--7-7-7-7-7-7-7-|
||--(7)-7-7-7-7-7-7-7-|--5--5-5-5-5-5-5-5-|
|
|   +W                  +W
||--------------------|-------------------|
||o-(7)---------------|-(7)---------------|
||--------------------|-------------------|
||--------------------|-------------------|
||o-------------------|-------------------|
||--------------------|-------------------|
|
|   +W                   W
||--------------------|-------------------|
||o-------------------|-------------------|
||--------------------|-------------------|
||--------------------|-------------------|
||o-(9)---------------|-------------------|
||--------------------|-------------------|


  F#5                 E5
 -------------------------------------|
   E  E E E E E E E    E  E E E E E E E
|-------------------|-------------------|
|-------------------|-------------------|
|-------------------|-------------------|
|--9--9-9-9-9-9-9-9-|--7--7-7-7-7-7-7-7-|
|--9--9-9-9-9-9-9-9-|--7--7-7-7-7-7-7-7-|
|--7--7-7-7-7-7-7-7-|--5--5-5-5-5-5-5-5-|
|
| +W                  +W
|-------------------|-------------------|
|-(7)---------------|-(7)---------------|
|-------------------|-------------------|
|-------------------|-------------------|
|-------------------|-------------------|
|-------------------|-------------------|
|
|  W                   W
|-------------------|-------------------|
|-------------------|-------------------|
|-------------------|-------------------|
|-------------------|-------------------|
|-------------------|-------------------|
|-------------------|-------------------|


  D5                         B5
   PM-------------------------------------------
   E   E  E  E  E  E  E  E    E  E E E E E E E
|--------------------------|-------------------|
|--------------------------|-------------------|
|-12--12-12-12-12-12-12-12-|--9--9-9-9-9-9-9-9-|
|-12--12-12-12-12-12-12-12-|--9--9-9-9-9-9-9-9-|
|-10--10-10-10-10-10-10-10-|--7--7-7-7-7-7-7-7-|
|--------------------------|-------------------|
|
| +W                         +W
|--------------------------|-------------------|
|-(7)----------------------|-(7)---------------|
|--------------------------|-------------------|
|--------------------------|-------------------|
|--------------------------|-------------------|
|--------------------------|-------------------|


  A5                  E5          A5      F#5
 -------------------------------|
   E  E E E E E E E    E  E E E E  E  +E  E
|-------------------|------------------------|
|-------------------|------------------------|
|--7--7-7-7-7-7-7-7-|------------------------|
|--7--7-7-7-7-7-7-7-|--7--7-7-7-7-12-(12)-9--|
|--5--5-5-5-5-5-5-5-|--7--7-7-7-7-12-(12)-9--|
|-------------------|--5--5-5-5-5-10-(10)-7--|
|
| +W                  +W
|-------------------|------------------------|
|-(7)---------------|-(7)--------------------|
|-------------------|------------------------|
|-------------------|------------------------|
|-------------------|------------------------|
|-------------------|------------------------|


              E5F#E5              A5      F#5
  +E  E E E E E E E   +E  E E E E  E  +E  E
|-------------------|-----------------------|
|-------------------|-----------------------|
|-------------------|-----------------------|
|-(9)-9-9-9-9-7-9-7-|-(7)-7-7-7-7-12-(12)-9-|
|-(9)-9-9-9-9-7-9-7-|-(7)-7-7-7-7-12-(12)-9-|
|-(7)-7-7-7-7-5-7-5-|-(5)-5-5-5-5-10-(10)-7-|
|
| +W                  +W
|-------------------|-----------------------|
|-(7)---------------|-(7)-------------------|
|-------------------|-----------------------|
|-------------------|-----------------------|
|-------------------|-----------------------|
|-------------------|-----------------------|


              E5F#E5              A5      D5
  +E  E E E E E E E   +E  E E E E  E  +E   E
|-------------------|-------------------------|
|-------------------|-------------------------|
|-------------------|---------------------12--|
|-(9)-9-9-9-9-7-9-7-|-(7)-7-7-7-7-12-(12)-12--|
|-(9)-9-9-9-9-7-9-7-|-(7)-7-7-7-7-12-(12)-10--|
|-(7)-7-7-7-7-5-7-5-|-(5)-5-5-5-5-10-(10)-----|
|
| +W                  +W
|-------------------|-------------------------|
|-(7)---------------|-(7)---------------------|
|-------------------|-------------------------|
|-------------------|-------------------------|
|-------------------|-------------------------|
|-------------------|-------------------------|


                   C#5     B5                  A5
   +E   E  E  E  E  E   E  E   +E  E E E E E E E
|----------------------------|-------------------|
|----------------------------|-------------------|
|-(12)-12-12-12-12-11-(11)-9-|-(9)-9-9-9-9-9-9-7-|
|-(12)-12-12-12-12-11-(11)-9-|-(9)-9-9-9-9-9-9-7-|
|-(10)-10-10-10-10--9---9--7-|-(7)-7-7-7-7-7-7-5-|
|----------------------------|-------------------|
|
|  +W                          +W
|----------------------------|-------------------|
|--(7)-----------------------|-(7)---------------|
|----------------------------|-------------------|
|----------------------------|-------------------|
|----------------------------|-------------------|
|----------------------------|-------------------|
|
| Gtr II
|   W                           W
|----------------------------|-------------------|
|----------------------------|-------------------|
|----------------------------|-------------------|
|----------------------------|-------------------|
|----------------------------|-------------------|
|----------------------------|-------------------|


             E5         N.C.   B5
  +H..       E   +Q.     Q.  E  E
|--------------|-------------------|
|--------------|-------------------|
|-(7)----------|-------------------|
|-(7)--------7-|-(7)------------2--|
|-(5)--------7-|-(7)----12s==x--2--|
|------------5-|-(5)----12s==x--0--|
|
| +W             +H..           E
|--------------|---------------10--|
|-(7)----------|-(7)---------------|
|--------------|-------------------|
|--------------|-------------------|
|--------------|-------------------|
|--------------|-------------------|
|
|  W              H..           E
|--------------|-------------------|
|--------------|-------------------|
|--------------|----------------7--|
|--------------|-------------------|
|--------------|-------------------|
|--------------|-------------------|


 Chorus 1, 2
                C#5D5                    E5 F#5
   +Q   Q.    E  E  E    +E  E E  E E  E  E  E
|---------------------|------------------------|
|---------------------|------------------------|
|---------------------|------------------------|
|--(2)--2-----2--4--5-|--(5)-5-5--5-5--5--7--9-|
|--(2)--2-----2--4--5-|--(5)-5-5--5-5--5--7--9-|
|--(0)--0-----0--2--3-|--(3)-3-3--3-3--3--5--7-|
|
|  +Q   Q.    E  E  E    +Q    Q.      E  E  E
|-(10)--9----------10-|-(10)---9------------10-|
|------------12-10----|---------------12-10----|
|---------------------|------------------------|
|---------------------|------------------------|
|---------------------|------------------------|
|---------------------|------------------------|
|
|  +Q   Q.    E  E  E    +Q    Q.      E  E  E
|---------------------|------------------------|
|---------------------|------------------------|
|--(7)--6-----------7-|--(7)---6-------------7-|
|-------------9--7----|----------------9--7----|
|---------------------|------------------------|
|---------------------|------------------------|


               E5F#E5                         D5
   +E  E E E E E E E   +E   E E E E  E  E E   W
|--------------------|----------------------|-----------------|
|--------------------|----------------------|-----------------|
|--------------------|----------------------|-----------------|
|--(9)-9-9-9-9-7-9-7-|-(7)--7-7-7-7--7--7-7-|-5---------------|
|--(9)-9-9-9-9-7-9-7-|-(7)--7-7-7-7--7--7-7-|-5---------------|
|--(7)-7-7-7-7-5-7-5-|-(5)--5-5-5-5--5--5-5-|-3---------------|
|
|  +E  Q   Q   Q   E   +E   Q   Q    Q.       E Q  Q   Q  E
|-(10)-9---7---5-----|----------------------|-7-9--7----------|
|------------------9-|-(9)-10---7---10------|---------10--9---|
|--------------------|----------------------|-----------------|
|--------------------|----------------------|-----------------|
|--------------------|----------------------|-----------------|
|--------------------|----------------------|-----------------|
|
|  +E  Q   Q   Q   E   +E   Q   Q    Q.       E Q  Q   Q  E
|--------------------|----------------------|-----------------|
|--------------------|----------------------|-----------------|
|--(7)-6-------------|----------------------|---6-------------|
|----------9---7---6-|-(6)--7--------7------|-9----9---7--6---|
|--------------------|----------9-----------|-----------------|
|--------------------|----------------------|-----------------|


  E5           N.C. F#5               E5F#E5
   H       +E  E  E E   +E  E E E  E  E E E   +E  E E E E E  E E
|---------------------|---------------------|--------------------|
|---------------------|---------------------|--------------------|
|---------------------|---------------------|--------------------|
|--7-------(7)------9-|-(9)-9-9-9--9--7-9-7-|-(7)-7-7-7-7-7--7-7-|
|--7-------(7)------9-|-(9)-9-9-9--9--7-9-7-|-(7)-7-7-7-7-7--7-7-|
|--5-------(5)-7h10-7-|-(7)-7-7-7--7--5-7-5-|-(5)-5-5-5-5-5--5-5-|
|
| +E  Q  Q     E  E E   +H        +E  E E E   +H        Q    Q
|---------------------|---------------------|--------------------|
|-(9)-7--------7-10-7-|-(7)-------(7)---7---|-----------7---10---|
|--------9------------|---------------9---9-|-(9)----------------|
|---------------------|---------------------|--------------------|
|---------------------|---------------------|--------------------|
|---------------------|---------------------|--------------------|
|
| +E  Q  Q     E  E E   +H        +E  E E E   +H        Q    Q
|---------------------|---------------------|--------------------|
|---------------------|---------------------|--------------------|
|---------------------|---------------------|--------------------|
|-(6)-------------7---|---------------------|----------------7---|
|-----9--7-----9----9-|-(9)-------(9)-7-9-7-|-(7)-------9--------|
|---------------------|---------------------|--------------------|

[ Tab from: http://www.guitartabs.cc/tabs/h/him/death_is_in_love_with_us_tab.html ]
                 1.                      2.
  D5              E5           N.C. F#5   E5         N.C. F#5
  W                H       +E  E  E E     H      +E  E  E E
|---------------|----------------------||-------------------|
|---------------|---------------------o||-------------------|
|---------------|----------------------||-------------------|
|-5-------------|--7-------(7)------9--||-7------(7)------9-|
|-5-------------|--7-------(7)------9-o||-7------(7)------9-|
|-3-------------|--5-------(5)-7h10-7--||-5------(5)-7h10-7-|
|
| E Q  Q   Q  E   +E  Q  Q     E  E E     W
|-7-9--7--------|----------------------||-------------------|
|---------10--9-|-(9)-7--------7-10-7-o||-9-----------------|
|---------------|--------9-------------||-------------------|
|---------------|----------------------||-------------------|
|---------------|---------------------o||-------------------|
|---------------|----------------------||-------------------|
|
| E Q  Q   Q  E   +E  Q  Q     E  E E     E Q  Q     E  E E
|---------------|----------------------||-------------------|
|---------------|---------------------o||-------------------|
|---6-----------|----------------------||-------------------|
|-9----9---7--6-|-(6)-------------7----||-6-------------7---|
|---------------|-----9--7-----9----9-o||---9--7-----9----9-|
|---------------|----------------------||-------------------|


 Breakdown
        N.C.
  +Q    H.        W          W           W
|---------------|----------|----------|--------|
|---------------|----------|----------|--------|
|---------------|----------|----------|--------|
|-(9)\----------|----------|----------|--------|
|-(9)\----------|----------|----------|--------|
|-(7)\----------|----------|----------|--------|
|
| +W              W          W          +W
|---------------|----------|----------|--------|
|-(9)-----------|-7--------|----------|--------|
|---------------|----------|-9--------|-(9)----|
|---------------|----------|----------|--------|
|---------------|----------|----------|--------|
|---------------|----------|----------|--------|
|
| +Q    H.        W          W           W
|---------------|----------|----------|--------|
|---------------|----------|----------|--------|
|---------------|----------|----------|--------|
|---------------|----------|----------|--------|
|-(9)\----------|----------|----------|--------|
|---------------|----------|----------|--------|


                                                   F#
                                             ~~~~~
  W          W          W           E  H     Q     E
|----------|----------|----------|--------------------|
|----------|----------|----------|--------------------|
|----------|----------|----------|--------------------|
|----------|----------|----------|----------11b12--9--|
|----------|----------|----------|-----------------x--|
|----------|----------|----------|-----------------7--|
|
| W          W          W          +W
|----------|----------|----------|--------------------|
|-9--------|-7--------|----------|--------------------|
|----------|----------|-9--------|-(9)----------------|
|----------|----------|----------|--------------------|
|----------|----------|----------|--------------------|
|----------|----------|----------|--------------------|


              E F#E               N.C.   F#
                                   ~~~~~
  +E  E E E E E E E   +E  E E E E  Q     E
|-------------------|----------------------|
|-------------------|----------------------|
|-------------------|----------------------|
|-(9)-9-9-9-9-7-9-7-|-(7)-7-7-7-7-11b12--9-|
|-(x)-x-x-x-x-x-x-x-|-(x)-x-x-x-x--------x-|
|-(7)-7-7-7-7-5-7-5-|-(5)-5-5-5-5--------7-|
|
|  W                   W
|-------------------|----------------------|
|--9----------------|--7-------------------|
|-------------------|----------------------|
|-------------------|----------------------|
|-------------------|----------------------|
|-------------------|----------------------|


              E F#E               N.C.   F#
                                   ~~~~~
  +E  E E E E E E E   +E  E E E E  Q     E
|-------------------|-----------------------|
|-------------------|-----------------------|
|-------------------|-----------------------|
|-(9)-9-9-9-9-7-9-7-|-(7)-7-7-7-7-11b12--9--|
|-(x)-x-x-x-x-x-x-x-|-(x)-x-x-x-x--------x--|
|-(7)-7-7-7-7-5-7-5-|-(5)-5-5-5-5--------7--|
|
|  W                  +W
|-------------------|-----------------------|
|-------------------|-----------------------|
|--9----------------|-(9)-------------------|
|-------------------|-----------------------|
|-------------------|-----------------------|
|-------------------|-----------------------|


              E F#E               N.C.   F#
                                   ~~~~~
  +E  E E E E E E E   +E  E E E E  Q     E
|-------------------|----------------------|
|-------------------|----------------------|
|-------------------|----------------------|
|-(9)-9-9-9-9-7-9-7-|-(7)-7-7-7-7-11b12--9-|
|-(x)-x-x-x-x-x-x-x-|-(x)-x-x-x-x--------x-|
|-(7)-7-7-7-7-5-7-5-|-(5)-5-5-5-5--------7-|
|
|  W                   W
|-------------------|----------------------|
|--9----------------|--7-------------------|
|-------------------|----------------------|
|-------------------|----------------------|
|-------------------|----------------------|
|-------------------|----------------------|
|
| Gtr II
|  W                   W
|-------------------|----------------------|
|-------------------|----------------------|
|-------------------|----------------------|
|-------------------|----------------------|
|-------------------|----------------------|
|-------------------|----------------------|


              E F#E              N.C.  B5
  +E  E E E E E E E   +E   E E E  Q  E  E
|-------------------|----------------------|
|-------------------|----------------------|
|-------------------|----------------------|
|-(9)-9-9-9-9-7-9-7-|-(7)--7-7-7--------2--|
|-(x)-x-x-x-x-x-x-x-|-(x)--x-x-x-12s=x--2--|
|-(7)-7-7-7-7-5-7-5-|-(5)--5-5-5-12s=x--0--|
|
|  W                  +Q.      H        E
|-------------------|------------------10--|
|-------------------|----------------------|
|--9----------------|-(9)------------------|
|-------------------|----------------------|
|-------------------|----------------------|
|-------------------|----------------------|
|
|  W                   H..              E
|-------------------|----------------------|
|-------------------|----------------------|
|-------------------|-------------------7--|
|-------------------|----------------------|
|-------------------|----------------------|
|-------------------|----------------------|


 Out-Chorus
                C#5D5                    E5 F#5
   +Q   Q.    E  E  E    +E  E E  E E  E  E  E
|---------------------|------------------------|
|---------------------|------------------------|
|---------------------|------------------------|
|--(2)--2-----2--4--5-|--(5)-5-5--5-5--5--7--9-|
|--(2)--2-----2--4--5-|--(5)-5-5--5-5--5--7--9-|
|--(0)--0-----0--2--3-|--(3)-3-3--3-3--3--5--7-|
|
|  +Q   Q.    E  E  E    +Q    Q.      E  E  E
|-(10)--9----------10-|-(10)---9------------10-|
|------------12-10----|---------------12-10----|
|---------------------|------------------------|
|---------------------|------------------------|
|---------------------|------------------------|
|---------------------|------------------------|
|
|  +Q   Q.    E  E  E    +Q    Q.      E  E  E
|---------------------|------------------------|
|---------------------|------------------------|
|--(7)--6-----------7-|--(7)---6-------------7-|
|-------------9--7----|----------------9--7----|
|---------------------|------------------------|
|---------------------|------------------------|


               E5F#E5
   +E  E E E E E E E   +E   E E E E  E  E E
|--------------------|-----------------------|
|--------------------|-----------------------|
|--------------------|-----------------------|
|--(9)-9-9-9-9-7-9-7-|-(7)--7-7-7-7--7--7-7--|
|--(9)-9-9-9-9-7-9-7-|-(7)--7-7-7-7--7--7-7--|
|--(7)-7-7-7-7-5-7-5-|-(5)--5-5-5-5--5--5-5--|
|
|  +E  Q   Q   Q   E   +E   Q   Q    Q.
|-(10)-9---7---5-----|-----------------------|
|------------------9-|-(9)-10---7---10-------|
|--------------------|-----------------------|
|--------------------|-----------------------|
|--------------------|-----------------------|
|--------------------|-----------------------|
|
|  +E  Q   Q   Q   E   +E   Q   Q    Q.
|--------------------|-----------------------|
|--------------------|-----------------------|
|--(7)-6-------------|-----------------------|
|----------9---7---6-|-(6)--7--------7-------|
|--------------------|----------9------------|
|--------------------|-----------------------|


  D5              E5           N.C. F#5
  W                H       +E  E  E E
|---------------|---------------------|
|---------------|---------------------|
|---------------|---------------------|
|-5-------------|--7-------(7)------9-|
|-5-------------|--7-------(7)------9-|
|-3-------------|--5-------(5)-7-10-7-|
|
| E Q  Q   Q  E   +E  Q  Q     E  E E
|-7-9--7--------|---------------------|
|---------10--9-|-(9)-7--------7-10-7-|
|---------------|--------9------------|
|---------------|---------------------|
|---------------|---------------------|
|---------------|---------------------|
|
| E Q  Q   Q  E   +E  Q  Q     E  E E
|---------------|---------------------|
|---------------|---------------------|
|---6-----------|---------------------|
|-9----9---7--6-|-(6)-------------7---|
|---------------|-----9--7-----9----9-|
|---------------|---------------------|


                E5F#E5             N.C.  B5
  +E  E E E  E  E E E   +E   E E E  Q  E  E
|---------------------|----------------------|
|---------------------|----------------------|
|---------------------|----------------------|
|-(9)-9-9-9--9--7-9-7-|-(7)--7-7-7--------2--|
|-(9)-9-9-9--9--7-9-7-|-(7)--7-7-7-12s=x--2--|
|-(7)-7-7-7--7--5-7-5-|-(5)--5-5-5-12s=x--0--|
|
| +H        +E  E E E   +H..              E
|---------------------|------------------10--|
|-(7)-------(7)---7---|----------------------|
|---------------9---9-|-(9)------------------|
|---------------------|----------------------|
|---------------------|----------------------|
|---------------------|----------------------|
|
| +H        +E  E E E   +H..              E
|---------------------|----------------------|
|---------------------|----------------------|
|---------------------|-------------------7--|
|---------------------|----------------------|
|-(9)-------(9)-7-9-7-|-(7)------------------|
|---------------------|----------------------|


                C#5D5                    E5 F#5
   +Q   Q.    E  E  E    +E  E E  E E  E  E  E
|---------------------|------------------------|
|---------------------|------------------------|
|---------------------|------------------------|
|--(2)--2-----2--4--5-|--(5)-5-5--5-5--5--7--9-|
|--(2)--2-----2--4--5-|--(5)-5-5--5-5--5--7--9-|
|--(0)--0-----0--2--3-|--(3)-3-3--3-3--3--5--7-|
|
|  +Q   Q.    E  E  E    +Q    Q.      E  E  E
|-(10)--9----------10-|-(10)---9------------10-|
|------------12-10----|---------------12-10----|
|---------------------|------------------------|
|---------------------|------------------------|
|---------------------|------------------------|
|---------------------|------------------------|
|
|  +Q   Q.    E  E  E    +Q    Q.      E  E  E
|---------------------|------------------------|
|---------------------|------------------------|
|--(7)--6-----------7-|--(7)---6-------------7-|
|-------------9--7----|----------------9--7----|
|---------------------|------------------------|
|---------------------|------------------------|


               E5F#E5
   +E  E E E E E E E   +E   E E E E  E  E E
|--------------------|-----------------------|
|--------------------|-----------------------|
|--------------------|-----------------------|
|--(9)-9-9-9-9-7-9-7-|-(7)--7-7-7-7--7--7-7--|
|--(9)-9-9-9-9-7-9-7-|-(7)--7-7-7-7--7--7-7--|
|--(7)-7-7-7-7-5-7-5-|-(5)--5-5-5-5--5--5-5--|
|
|  +E  Q   Q   Q   E   +E   Q   Q    Q.
|-(10)-9---7---5-----|-----------------------|
|------------------9-|-(9)-10---7---10-------|
|--------------------|-----------------------|
|--------------------|-----------------------|
|--------------------|-----------------------|
|--------------------|-----------------------|
|
|  +E  Q   Q   Q   E   +E   Q   Q    Q.
|--------------------|-----------------------|
|--------------------|-----------------------|
|--(7)-6-------------|-----------------------|
|----------9---7---6-|-(6)--7--------7-------|
|--------------------|----------9------------|
|--------------------|-----------------------|


    D5              E5           N.C. F#5
    W                H       +E  E  E E
||----------------|---------------------|
||o---------------|---------------------|
||----------------|---------------------|
||--5-------------|--7-------(7)------9-|
||o-5-------------|--7-------(7)------9-|
||--3-------------|--5-------(5)-7-10-7-|
|
|   E Q  Q   Q  E   +E  Q  Q     E  E E
||--7-9--7--------|---------------------|
||o---------10--9-|-(9)-7--------7-10-7-|
||----------------|--------9------------|
||----------------|---------------------|
||o---------------|---------------------|
||----------------|---------------------|
|
|   E Q  Q   Q  E   +E  Q  Q     E  E E
||----------------|---------------------|
||o---------------|---------------------|
||----6-----------|---------------------|
||--9----9---7--6-|-(6)-------------7---|
||o---------------|-----9--7-----9----9-|
||----------------|---------------------|


                E5F#E5
  +E  E E E  E  E E E   +E  E E E E E  E E  3x
|---------------------|---------------------||
|---------------------|--------------------o||
|---------------------|---------------------||
|-(9)-9-9-9--9--7-9-7-|-(7)-7-7-7-7-7--7-7--||
|-(9)-9-9-9--9--7-9-7-|-(7)-7-7-7-7-7--7-7-o||
|-(7)-7-7-7--7--5-7-5-|-(5)-5-5-5-5-5--5-5--||
|
| +H        +E  E E E   +H        Q    Q    3x
|---------------------|---------------------||
|-(7)-------(7)---7---|-----------7---10---o||
|---------------9---9-|-(9)-----------------||
|---------------------|---------------------||
|---------------------|--------------------o||
|---------------------|---------------------||
|
| +H        +E  E E E   +H        Q    Q    3x
|---------------------|---------------------||
|---------------------|--------------------o||
|---------------------|---------------------||
|---------------------|----------------7----||
|-(9)-------(9)-7-9-7-|-(7)-------9--------o||
|---------------------|---------------------||


  D5              E5           N.C. F#5           N.C.
  W                H       +E  E  E E   +H.       Q     W
|---------------|---------------------|--------------|--------*|
|---------------|---------------------|--------------|--------*|
|---------------|---------------------|--------------|--------*|
|-5-------------|--7-------(7)------9-|-(9)\---------|--------*|
|-5-------------|--7-------(7)------9-|-(9)\---------|--------*|
|-3-------------|--5-------(5)-7-10-7-|-(7)\---------|--------*|
|
|                                        ~~~~~~~~~~~~~~~~~~
| E Q  Q   Q  E   +E  Q  Q     E  E E   +W             +W
|-7-9--7--------|---------------------|--------------|--------*|
|---------10--9-|-(9)-7--------7-10-7-|-(7)----------|-(7)----*|
|---------------|--------9------------|--------------|--------*|
|---------------|---------------------|--------------|--------*|
|---------------|---------------------|--------------|--------*|
|---------------|---------------------|--------------|--------*|
|
| E Q  Q   Q  E   +E  Q  Q     E  E E   +H.       Q     W
|---------------|---------------------|--------------|--------*|
|---------------|---------------------|--------------|--------*|
|---6-----------|---------------------|--------------|--------*|
|-9----9---7--6-|-(6)-------------7---|--------------|--------*|
|---------------|-----9--7-----9----9-|-(9)----------|--------*|
|---------------|---------------------|--------------|--------*|


Duration Legend
---------------
W - whole; H - half; Q - quarter; E - 8th; S - 16th; T - 32nd; X - 64th; a - acciaccatura
+ - note tied to previous; . - note dotted; .. - note double dotted
Uncapitalized letters represent notes that are staccato (1/2 duration)
Irregular groupings are notated above the duration line
Duration letters will always appear directly above the note/fret number it represents the
duration for.  Duration letters with no fret number below them represent rests.  Multi-
bar rests are notated in the form Wxn, where n is the number of bars to rest for.  Low
melody durations appear below the staff

Tablature Legend
----------------
 h   - hammer-on
 p   - pull-off
 b   - bend
 pb  - pre-bend
 r   - bend release (if no number after the r, then release immediately)
 /\  - slide into or out of (from/to "nowhere")
 s   - legato slide
 S   - shift slide
  - natural harmonic
[n]  - artificial harmonic
n(n) - tapped harmonic
 ~   - vibrato
 tr  - trill
 T   - tap
 TP  - trem. picking
 PM  - palm muting
\n/  - tremolo bar dip; n = amount to dip
 \n  - tremolo bar down
 n/  - tremolo bar up
/n\  - tremolo bar inverted dip
 =   - hold bend; also acts as connecting device for hammers/pulls
 <>  - volume swell (louder/softer)
 x   - on rhythm slash represents muted slash
 o   - on rhythm slash represents single note slash

Misc Legend
-----------
 |  - bar
||  - double bar
||o - repeat start
o|| - repeat end
*|  - double bar (ending)
 :  - bar (freetime)
 $  - Segno
 &  - Coda
Tempo markers -  = BPM(8/16=s8/s16), where s8 = swing 8ths, s16 = swing 16ths
Comments