Him - Dark Secret Love Chords & Tabs

 

Dark Secret Love Chords & Tabs

Him Chords & Tabs

Version: 1 Type: Bass Tab

Dark Secret Love Bass Tab

I learnt this by ear and im a drummer and im 13 yrs old so no negative feedback ok. Well here goes.

^ = play that note softer

INTRO
E|-------0^-----------0^-----------0^----| x 5
A|----------4^-----------4^-----------4^-|
D|---------------------------------------|
G|--3-3---------3-3---------3-3----------|
[ Tab from: http://www.guitartabs.cc/tabs/h/him/dark_secret_love_btab.html ]
CHORUS
G|------------|-------------------------------------|-----------|
D|------5--4--|-------------------------------------|-----------|
A|---2--------|2--3--3/5--3---2---3-3-3-3-3-3-3-3---|-----------|
E|3-----------|-------------------------------------|-----------|

I've only figured out that much of the song