Him - Circle Of Fear Chords & Tabs

 

Circle Of Fear Chords & Tabs

Him Chords & Tabs

Version: 1 Type: Tab 0 ratings
1 star 2 stars 3 stars 4 stars 5 stars
comments

Circle Of Fear Tab

These tabs are not 100% correct but they sound good enough 4 a beginner.

[ Tab from: http://www.guitartabs.cc/tabs/h/him/circle_of_fear_tab.html ]
Intro
e|-------------------------------------------------------------------|
B|-------------------------------------------------------------------|
G|------------2-----2------2-------------2------2---------2--0-0-----|Repeat x 
D|-5-5-7----2---2--------2---2---2-----2---2---------------------2---|
A|-5-5-7--0------0-----0-------0-----0-------0--------0-0------------|
E|-3-3-5-------------------------------------------------------------|


e|-------------------------------------------------|
B|------1---------1--------1--------1-----0--------|
G|--------2---------2--------2---------------------|
D|---2----------2--------2--------2-----2----------| Repeat till chorus
A|-0----------0--------0--------0-----0------------|
E|-------------------------------------------------|

This is all i know
Comments