Him - Buried Alive By Love Chords & Tabs

 

Buried Alive By Love Chords & Tabs

Him Chords & Tabs

Version: 2 Type: Tab 0 ratings
1 star 2 stars 3 stars 4 stars 5 stars
comments

Buried Alive By Love Tab

   
-------------------------------------------------------------------------------
                       buried alive by love - HIM
-------------------------------------------------------------------------------
Tabbed by:
Email:

Tuning:standard

intro

e|---------------------------------------------------------------------------|
B|---------------------------------------------------------------------------|
G|---------------------------------------------------------------------------|
D|---------------------------------------------------------------------------|
A|--2-2-2-2-2-2-2-2-2-2-2----------------------------------------------------|
E|--3-0-0-0-0-0-3-0-0-0-0----------------------------------------------------|

verse

e|---------------------------------------------------------------------------|
B|---------------------------------------------------------------------------|
G|---5-----------------------------------------------------------------------|
D|-2-5-----------------------------------------------------------------------|
A|-2-3------------------------/7---------------------------------------------|
E|-0--------------------------/7---------------------------------------------|
listen in for the strum patterns

then slide up to the 7th when needed

chorus- first part

e|---------------------------------------------------------------------------|
B|---------------------------------------------------------------------------|
G|-9----11---12---14---------------------------------------------------------|
D|-X----X----X----X----------------------------------------------------------|then
A|-7----9----10---12--------------2-2-2-2--5-5-5-5--2-2-2-2------------------|
E|-0----0----0----0---------------0-0-0-0--3-3-3-3--0-0-0-0------------------|

chorus-second part
[ Tab from: http://www.guitartabs.cc/tabs/h/him/buried_alive_by_love_tab_ver_2.html ]
e|---------------------------------------------------------------------------|
B|---------------------------------------------------------------------------|
G|-12---11---9----7----------------------------------------------------------|
D|-X----X----X----X----------------------------------------------------------|then
A|-10---9----7----5--------------2-2-2-2--5-5-5-5--7-7-7-7-------------------|
E|-0----0----0----0--------------0-0-0-0--3-3-3-3--5-5-5-5-------------------|
and then back to main riff
 
breakdown thing before riffs

e|---------------------------------------------------------------------------|
B|---------------------------------------------------------------------------|
G|---------------------------------------------------------------------------|
D|----7--------------------------------------------------------------5-------|
A|----7--2-2---------------------------------------------------------5-------|you know that part 
E|----5--3-0---------------------------------------------------------3-------|between eack chord,
3 times.
then

e|---------------------------------------------------------------------------|
B|---------------------------------------------------------------------------|
G|---------------------------------------------------------------------------|
D|---5-5----5-5----5---------------------------------------------------------|
A|---5-5----5-5----5---/7----------------------------------------------------|
E|---3-3----3-3----3---/7----------------------------------------------------|

solo. NOT THE REAL ONE . its a scale of where linde plays it thojust scale back
and forth till your comfortable with the way you play it
e|--------------------------------7-9-10-12----------------------------------|
B|----------------------7-9-10-12--------------------------------------------|
G|-------------7-9-10-12-----------------------------------------------------|
D|---7-9-10-12---------------------------------------------------------------|
A|---------------------------------------------------------------------------|
E|---------------------------------------------------------------------------|


| /  slide up
| \  slide down
| h  hammer-on
| p  pull-off
| ~  vibrato
| +  harmonic
| x  Mute note
===============================================================================
Comments