Hillsongs - Tell The World Chords & Tabs

 

Tell The World Chords & Tabs

Hillsongs Chords & Tabs

Version: 1 Type: Tab 0 ratings
1 star 2 stars 3 stars 4 stars 5 stars
comments

Tell The World Tab

   
-------------------------------------------------------------------------------
			     Tell the World - Hilsong
-------------------------------------------------------------------------------
Tabbed by:Yakka Harris
Email:Yakka66@gmail.com

I love this song and wanted to Tab it so much all credit goes to hillsong i hope this
helps you guys !!! Yakka

Tuning:Standard

Bass line on guitar is as follows
This plays for intro and throught verses 
e|---------------------------------------------------------------------------|
B|---------------------------------------------------------------------------|
G|-5-5-5-3-3-3---------------------------------------------------------------|
D|------------5-5-6-6-6-5-5--------------------------------------------------|
A|--------------------------6-6----------------------------------------------|
E|---------------------------------------------------------------------------|

Guitar screeching bit over bass line as follows
[ Tab from: http://www.guitartabs.cc/tabs/h/hillsongs/tell_the_world_tab.html ]
e|---------------------------------------------------------------------------|
B|-7--7--7--7--7--7--7--------3--3--3--3--3--3--3----------------------------|
G|-9b-9b-9b-9b-9b-9b-9b-------4b-4b-4b-4b-4b-4b-4b---------------------------|
D|---------------------------------------------------------------------------|
A|---------------------------------------------------------------------------|
E|---------------------------------------------------------------------------|

Chorus as follows

e|----------------------------------------2-2-2-2-2-2-2-------2-2-2-2-2-2-2--|
B|-2-2-2-2-2-2-2--------------------------2-2-2-2-2-2-2-------3-3-3-3-3-3-3--|
G|-2-2-2-2-2-2-2------1 1 1 1 1 1 1-------2-2-2-2-2-2-2-------2-2-2-2-2-2-2--|
D|-2-2-2-2-2-2-2------2-2-2-2-2-2-2-------4-4-4-4-4-4-4----------------------|
A|--------------------2-2-2-2-2-2-2-------4-4-4-4-4-4-4----------------------|
E|----------------------------------------2-2-2-2-2-2-2----------------------|


| /  slide up
| \  slide down
| h  hammer-on
| p  pull-off
| ~  vibrato
| +  harmonic
| x  Mute note
===============================================================================
Comments