Hillsongs - Tell The World Chords & Tabs

 

Tell The World Chords & Tabs

Hillsongs Chords & Tabs

Version: 1 Type: Bass Tab 0 ratings
1 star 2 stars 3 stars 4 stars 5 stars
comments

Tell The World Bass Tab

	VERSE BASS
G|---------------------------------------------------------------------------|
D|-4-4-4-2-2-2---------------------------------------------------------------|
A|-------------4-4-5-5-5-4-4-4-----------------------------------------------|
E|-----------------------------5-5-------------------------------------------|

	VERSE BASS LAST LINE BEFORE CHORUS
G|---------------------------------------------------------------------------|
D|-4-4-4-2-2-2---------------------------------------------------------------|
A|-------------4-4-2-2-2-2-5-5-5-5-------------------------------------------|
E|---------------------------------------------------------------------------|
[ Tab from: http://www.guitartabs.cc/tabs/h/hillsongs/tell_the_world_btab.html ]
	CHORUS BASS
G|---------------------------------------------------------------------------|
D|---------------------------------------------------------------------------|
A|-0-0-0-0-0-0-0-0---------------------------------5-5-5-5-5-5-5-5-----------|
E|-----------------O-O-O-O-O-O-O-O-2-2-2-2-2-2-2-2---------------------------|

	CHORUS BASS AFTER DRUM SOLO UNTIL NORMAL CHORUS AGAIN
G|---------------------------------------------------------------------------|
D|---------------------------------------------------------------------------|
A|-0-0-0-0-0-0-0-0-2-2-2-2-2-2-2-2-----------------5-5-5-5-5-5-5-5-----------|
E|---------------------------------2-2-2-2-2-2-2-2---------------------------|
Comments