Hillsongs - Still Chords & Tabs

 

Still Chords & Tabs

Hillsongs Chords & Tabs

Version: 1 Type: Tab 0 ratings
1 star 2 stars 3 stars 4 stars 5 stars
comments

Still Tab

   
STILL
by Hillsong
Tabbed by: Paolo Rico

Intro:
   C   G/B   Am             F      D/F#     Gsus     G
e|-0----3----------0-----------1-------2-------3-----3-|
b|-1----3----1---------1-------1-------3-------3-----3-|
g|-----------2---2-------2-------3-------3-----------4-|
d|-------------2-----2-------------------------------5-|
a|-3----2----0---------------3-------0-------5---5---5-|
e|-------------------------1-------2-------3---------3-|

Verse:
   C   G/B   Am             F      D/F#     Gsus     G
e|-0----3----------0-----------1-------2-------3-----3-|
b|-1----3----1---------1-------1-------3-------3-----3-|
g|-----------2---2-------2-------3-------3-----------4-|
d|-------------2-----2-------------------------------5-|
a|-3----2----0---------------3-------0-------5---5---5-|
e|-------------------------1-------2-------3---------3-|
  Hide  me   now         under    your    wings

[ Tab from: http://www.guitartabs.cc/tabs/h/hillsongs/still_tab.html ]
  C   G/B   Am             F        Dm7      G
e|-0----3----------0-----------1--------1-------3---3-|
b|-1----3----1---------1-------1--------1-------3---3-|
g|-----------2---2-------2-------3----2---2---0---0-0-|
d|-------------2-----2--------------0---------------0-|
a|-3----2----0---------------3----------------------2-|
e|-------------------------1----------------3-------3-|
  Co---ver   me        within your mighty    

Chorus:
         C7      F        G        Am
When the oceans rise and thunders roar
        C7        F     G        Am
I will soar with you above the storm
        C7      F     G         Am
Father you are King over the flood
                G          F       G
And I will be still, know you are God

Verse2: (same as verse1)
Find rest my soul, in Christ alone
Know His pow'r, in quietness and trust


Repeat chorus
Adlib
Repeat the chords of intro
Repeat stanza II
Repeat Chorus
-----------------------------------------------------------------------------
Glory to God!!!


    -whatever9-
    tracyaces1@yahoo.com
Comments