Hillsongs - Now That Your Near Chords & Tabs

 

Now That Your Near Chords & Tabs

Hillsongs Chords & Tabs

Version: 1 Type: Tab 0 ratings
1 star 2 stars 3 stars 4 stars 5 stars
comments

Now That Your Near Tab

   
thanks to hillsong for this again and to Youth For Christ West A and highschool based SYDNEY.

tuning: Drop D

Intro
E|-----------------------------------------|
B|-----------------------------------------|
G|-----------------------------------------|(X2)
D|-9-9-9-9--5-5-5-5--12-12-12-12--7-7-7-7--|
A|-9-9-9-9--5-5-5-5--12-12-12-12--7-7-7-7--|
D|-9-9-9-9--5-5-5-5--12-12-12-12--7-7-7-7--|
   C#M       A            E         B

Bridge 1
E|-----------------------------------|
B|-----------------------------------|
G|-----------------------------------|(X2)
D|-12-12--14-14-14-14--16-16-16--12--|
A|-12-12--14-14-14-14--16-16-16--12--|
D|-12-12--14-14-14-14--16-16-16--12--|
[ Tab from: http://www.guitartabs.cc/tabs/h/hillsongs/now_that_your_near_tab.html ]
Figure out how many times to strum the guitar because its hard to figure it out on here
so just listen to it. I know there isn't a drop D performance by hillsong but I just made
this up for fun. (this is not actual how many times to strum this this is just an outline
so you can see how many
times to strum it.

Verse 1
E|-------------|
B|-------------|
G|-------------| (Verse 2 is the same as Verse 1)
D|-12-5-9-5-7--|
A|-12-5-9-5-7--|
D|-12-5-9-5-7--|

Chorus
E|---------------------------------------|     INTRO
B|-------------------------     BRIDGE 1-|
G|-------------------------     VERSE 1--|
D|-12-7-9-5-7--12-7-9-5-7--     VERSE 2--|
A|-12-7-9-5-7--12-7-9-5-7----------------|     CHORUS
D|-12-7-9-5-7--12-7-9-5-7--     BRIDGE 1-|
                                VERSE 1
Bridge 2                        VERSE 2
E|------------------            CHORUS---| (x2)
B|------------------            BRIDGE 2-|
G|---------------------------------------|            INTRO
D|-9-5-12-7--9-7-5--            CHORUS---| (x2)
A|-9-5-12-7--9-7-5--            BRIDGE 1-|
D|-9-5-12-7--9-7-5-----------------------|

There you go that's it this is only a experiment but try it it's really fun GOD BLESS
Comments